Oops, an error
Loading. Please wait.

Gary Lewis The Playboys - This Diamond Ring Chords

4,621 views 33 this week
no commentswrite comment
1 2 3 4 5
excellent!
x 4
add to favorites
launch autoscroll
font size
0
reset
transpose
0
reset
simplify chords
- display chords -
guitar tuner
Tab Pro tools
  • play this tab
  • loop segment
  • change instrument
  • show fretboard
  • metronome
Autoscroll
slow
fast
+/-
esc
set tempo
stop
Contributor
This Diamond Ring by Gary Lewis and the Playboys:
#1 in 1965.
            (Capo 2nd fret.)
INTRO:(x2)
----------------------------------------|
----------------------------------------|
-----4-4-2-4-2-----2-4----2-4-----------|
----------------4-----------------------|
----------------------------------------|
----------------------------------------|

#1.
Bm                          D       E    Bm
Who wants to buy-yyy,  this diamond ri...ng?
    Bm                                     D      E    C
She took it off her finger now, it doesn't mean a thing.

CHORUS:
F            Am           Dm           C
This diamond ring doesn't shine for me anymore,
    F            Am           Dm           C
And this diamond ring doesn't mean what it did before,
Dm           Am      Dm        Am      Gm7  C
So if you've got someone who's love is true,
                 F    F#
Let it shine for you.

#2.
Bm                          D           E    Bm
This stone is genuine, like love should be...ee,
    Bm                                D      E    C
And if your baby's truer than my baby was to me...ee.

CHORUS:#2.
F            Am       Dm             C
This diamond ring can mean something beautiful,
    F            Am          Dm              C
And this diamond ring can be dreams that are coming true,
    Dm        Am          Dm      Am         
       C
And then your heart won't have to break like mine did,
                F          F#
if there's love behind it.

(INSTRUMENTAL:)

--------------------------------------------|
--------------------------------------------|
------4--4--2--4--2---------2--4--1---------|
---------------------4-4-4-----------4-2-4--|
--------------------------------------------|
--------------------------------------------|

--------------------------------------------|
--------------------------------------------|
------4--4--2--4--2---------2--4--1---------|
---------------------4-4-4-----------4-2-5--|
--------------------------------------------|
--------------------------------------------|


CHORUS:#2.
F            Am       Dm             C
This diamond ring can mean something beautiful,
    F            Am          Dm              C
And this diamond ring can be dreams that are coming true,
    Dm        Am          Dm      Am         
       C
And then your heart won't have to break like mine did,
                F          F#
if there's love behind it.

OUTRO:
F            Am           Dm           C
This diamond ring doesn't shine for me anymore,
    F            Am           Dm           C
And this diamond ring doesn't mean what it did before,
Dm           Am      Dm        Am      Gm7  C
So if you've got someone who's love is true,
                 F    F#
Let it shine for you. (Fade.)

A 60's smash from Kraziekhat.
comments
print report bad tab
I want to post or [tab]
guest
You may want to rate the tab now too:
select rating
Please do not post tabs as comments. Select "correction" instead!