Oops, an error
Loading. Please wait.

Gentaro Satomura - Neo Classical Sweep tab

55,328 views 9 this week
14 commentsread comments
1 2 3 4 5
x 24
add to favorites
×
Save as Personal and add changes to this tab that will be seen only by you. Learn more ›
×
You can save this tab as Personal to edit and correct it or add notes. All changes will be seen only by you. Learn more »
launch autoscroll
font size
0
reset
how to read this tab
guitar tuner
edit
Autoscroll
slow
fast
+/-
esc
set tempo
stop
Author
Difficulty
**A few updates made July 2010**

Let me know via youtube account (youtube.com/user/Guitarzoink) if you have comments, 
or suggestions. Feel free to ignore the music theory stuff I added, but it’s good to 
the songs you play.

**Intro fixed!**

|-13h17p13----------13h17p13----------13h17p13-------|
|----------15----15-----------15----15---------15----|
|-------------14-----------------14---------------14-|
|----------------------------------------------------|
|----------------------------------------------------|
|----------------------------------------------------|

|-10h13p10----------10h13p10----------10h13p10-------|
|----------11----11----------11----11----------11----|
|-------------10----------------10----------------10-|
|----------------------------------------------------|
|----------------------------------------------------|
|----------------------------------------------------|

|-10h13p10----------10h13p10----------10h13p10-------|
|----------12----12----------12----12----------12----|
|-------------10----------------10----------------10-|
|----------------------------------------------------|
|----------------------------------------------------|
|----------------------------------------------------|

|-12h15p12----------12h15p12----------12h15p12-------|
|----------13----13----------13----13----------13----|
|-------------12----------------12----------------12-|
|----------------------------------------------------|
|----------------------------------------------------|
|----------------------------------------------------| X4

Alternate Picking Fun!
|----------------------------------------8--------------|
|--------------------------------8-10-11---11-10-8------|
|-------------------------7-9-10-------------------10-9-|
|-------5-----------5-7-8-------------------------------|
|-5-7-8---8-7-5-7-8-------------------------------------|
|-------------------------------------------------------|

|--------------------------10-12-13-12-10-----------------------------|
|-----------------10-11-13----------------13-11-10--------------------|
|---------9-10-12----------------------------------12-10-9------------|
|-8-10-12--------------------------------------------------12-10-8-12-|
|---------------------------------------------------------------------|
|---------------------------------------------------------------------|

**Updated Run**
|---------8--------------8-12p8-15p12----12-----------------------|
|-------------------------------------13----13----13--------------|
|----9h12---12p9----9h12-----------------------12----12-9-12-9----|
|-10-------------10--------------------------------------------10-|
|-----------------------------------------------------------------|
|-----------------------------------------------------------------|

|----------------------------------------------------------------|
|-------------------------10-11-13----------------------11-13-15-|
|-----------------9-10-12----------------------10-12-14----------|
|---------8-10-12---------------------11-12-14-------------------|
|-8-10-12--------------------------14----------------------------|
|----------------------------------------------------------------|
||D Aeolian; Bb Lydian; C Major Arpeggio; F Ionian and G Harmonic Minor||

|----------------------------------------8--------------|
|--------------------------------8-10-11---11-10-8------|
|-------------------------7-9-10-------------------10-9-|
|-------5-----------5-7-8-------------------------------|
|-5-7-8---8-7-5-7-8-------------------------------------|
|-------------------------------------------------------|

|--------------------------10-12-13-12-10-----------------------------|
|-----------------10-11-13----------------13-11-10--------------------|
|---------9-10-12----------------------------------12-10-9------------|
|-8-10-12--------------------------------------------------12-10-8-12-|
|---------------------------------------------------------------------|
|---------------------------------------------------------------------|

|---------8--------------8--------15-12----12-----------------------|
|---------------------------------------13----13----13--------------|
|----9-12---12-9----9-12---(12-9)----------------12----12-9-12-9----|
|-10-------------10----------------------------------------------10-|
|-------------------------------------------------------------------|
|-------------------------------------------------------------------|

|-17-15-13----13-15-17-15-13----------------------------------------------|
|----------17----------------17-15-14-------------------------------------|
|-------------------------------------15-14-12----------------------12-14-|
|----------------------------------------------15-14-12-11-12-14-15-------|
|-------------------------------------------------------------------------|
|-------------------------------------------------------------------------|
||Last line=A Phrygian Dominant, resolves to Bb||
|--------------------------------------------------------------|
|------------13-15---------13~-13~-13-15-17-17b18-17b20--------|
|-15~-15~-15-------12~-12~-------------------------------------|
|--------------------------------------------------------------|
|-------------------------------------------------------x\-----|
|-------------------------------------------------------x\-----|

|-10-12-14-12-10---------------10-12-14-12-10----------------10-12-14-12-10-|
|---------------------------------------------------------------------------|
|---------------14-12-11-12-14----------------------------------------------|
|---------------------------------------------14-12-11-12-14----------------|
|---------------------------------------------------------------------------|
|---------------------------------------------------------------------------|

|----------------10-12-14-12-10----------------10-12-14-12-10---------------|
|---------------------------------------------------------------------------|
|-------------------------------------------------------------14-12-11-12-14|
|-------------------------------14-12-11-12-14------------------------------|
|-14-12-10-12-14------------------------------------------------------------|
|---------------------------------------------------------------------------|

***Updated run***

|----------------------10-------10-12----10-12-14-9h10----9-------------------|
|-11-12-14-11-12-14-14----12-14-------14---------------12---10-12--7h8p7---7-|
|-------------------------------------------------------9---------------------|
|-----------------------------------------------------------------------------|
|-----------------------------------------------------------------------------|
|-----------------------------------------------------------------------------|

|--------------------------------------------------------------------------------|
|--------------------------------------------------------------------------------|
|-9-7-6h7p6---6------------------------------------------------------------------|
|-----------9---9-7-5h7p5---5-------------------------------7-------------7-9-11-|
|-------------------------9---9-7-5h7p5---5----------7-9-10---10-9-7-9-10--------|
|---------------------------------------9---9-7-5--------------------------------|

|-----------------------------------------7-9-10-9-7-9-10-12-10-9----|
|----------------------8-------------8-10-------------------------12-|
|-7-------------7-9-11---11-9-7-9-11---------------------------------|
|---11-9-7-9-11------------------------------------------------------|
|--------------------------------------------------------------------|
|--------------------------------------------------------------------|

|-10-12-14-12-10----12-14-15-14-12----14-15-17-15-14----14-15-17b19-|
|----------------14----------------15----------------17-------------|
|-------------------------------------------------------------------|
|-------------------------------------------------------------------|
|-------------------------------------------------------------------|
|-------------------------------------------------------------------|

|-17~-15-14--------------------------|
|-----------17-15-14--------14-------|
|--------------------14~-16----------|
|------------------------------------|
|------------------------------------|
|------------------------------------|

CANON!
a.k.a. The part everyone wants to learn.

|-16-19----19----19----19-16-19----19-14-19----19-12-16----16----16----16-|
|-------17----------17----------17----------16----------14----------14----|
|-------------16----------------------------------------------13----------|
|-------------------------------------------------------------------------|
|-------------------------------------------------------------------------|
|-------------------------------------------------------------------------|

|-12-16----16-11-16----16-9-12----12---12----12-9-12----12-7-12---12-9-12-|
|-------14----------12---------10---------10---------10---------9---------|
|------------------------------------9------------------------------------|
|-------------------------------------------------------------------------|
|-------------------------------------------------------------------------|
|-------------------------------------------------------------------------|

|-9-12----12---12----12-11-14----14----14----14---|
|------10---------10----------12----------12------|
|------------9----------------------11------------|
|-------------------------------------------------|
|-------------------------------------------------|
|-------------------------------------------------|  X2

|-------------10-12-13-12-10----------10-------------10-----------------------|
|-13b15~-b15~----------------13-13b15----13p10----------13p10-----------------|
|----------------------------------------------12b14----------12b14rb12p10----|
|--------------------------------------------------------------------------12-|
|-----------------------------------------------------------------------------|
|-----------------------------------------------------------------------------|

|-------------------------------------------------------------------|
|-------------------------------------------------------------------|
|-10h12p10----10h12p10----------10h12p10----10h12p10--------/12-10--|
|----------12----------12-10h12----------12----------12-10\-/12-10--|
|-------------------------------------------------------------------|
|-------------------------------------------------------------------|

|-10-------------10-12-13-12-10----|
|----13b15~-b15~----------------13-|
|----------------------------------|
|----------------------------------|
|----------------------------------|
|----------------------------------|

[Insert intro arpeggios here]

Harmonic Minor diddly:
(again, following Canon), E harmonic minor switching into two modes of A harmonic minor:
 E Phrygian dominant and B Locrian 6

|-------------------------------------------0h4---0h4---0h5---0h5---0h7---0h7-|
|-----------------------------------------------5-----5-----6-----6-----9-----|
|-----------------5-9-5-8-9~-5h8p5-4-4b5rb4-----------------------------------|
|-----------5-7-9-------------------------------------------------------------|
|-x\-7~-7-9-------------------------------------------------------------------|
|-x\--------------------------------------------------------------------------|

|---0h8----0h8----0h10----0h10----0h8----0h8----0h7---0h7---0-|
|-9-----10-----10------12------12-----10-----10-----9-----9-0-|
|-------------------------------------------------------------|
|-------------------------------------------------------------|
|-------------------------------------------------------------|
|-------------------------------------------------------------|

|----------12----------------12-13-16-13-12----------------12----------------|
|-12-13-15----15-13-12-13-15----------------15-13-12-13-15----15-13-12-13-15-|
|----------------------------------------------------------------------------|
|----------------------------------------------------------------------------|
|----------------------------------------------------------------------------|
|----------------------------------------------------------------------------|


|-12-13-16-13-12----------------12----------------12-13-16-13-12-13-12----|
|----------------15-13-12-13-15----15-13-12-13-15----------------------15-|
|-------------------------------------------------------------------------|
|-------------------------------------------------------------------------|
|-------------------------------------------------------------------------|
|-------------------------------------------------------------------------|

|-12-----------------------------17b19rb-17b19-16-17-19-17-16-17-16----16-|
|----15-13-15-13-12-13-12----12-------------------------------------18----|
|-------------------------14----------------------------------------------|
|-------------------------------------------------------------------------|
|-------------------------------------------------------------------------|
|-------------------------------------------------------------------------|

|----------------------------------------------------------------------------|
|-18-17-18-17-15-17-15-13-15-13----13----------------------------------------|
|-------------------------------16----16-14-16-14-13-14-13----13-------------|
|----------------------------------------------------------15----15-14h15-14-|
|----------------------------------------------------------------------------|
|----------------------------------------------------------------------------|

String skipping:

|-10-12-14-12-10----------------10-12-14-12-10----------------------------------|
|----------------------------------------------------------------------11-12-14-|
|----------------14-12-11-12-14-------------------------------11-12-14----------|
|----------------------------------------------14-12-11-12-14-------------------|
|-------------------------------------------------------------------------------|
|-------------------------------------------------------------------------------|

|-9-10-12-10-9----------------9-10-12-10-9-------------------------------------------|
|---------------------------------------------------------------------------11-12-14-|
|--------------14-12-11-12-14--------------------------------------11-12-14----------|
|---------------------------------------------------------11-12-14-------------------|
|------------------------------------------14-12-10-12-14----------------------------|
|------------------------------------------------------------------------------------|

|-10-12-14-12-10-12-10----10----------------10-12-14-12-10---------------9-10-12-10-9-|
|----------------------14----14-12-10-12-14----------------12-10-9-10-12--------------|
|-------------------------------------------------------------------------------------|
|-------------------------------------------------------------------------------------|
|-------------------------------------------------------------------------------------|
|-------------------------------------------------------------------------------------|

|-10-9----9---------------------------------------------------|
|------12---12-10-8-10-12-------------------------------------|
|-------------------------9-7-6-7-6---------------------------|
|-----------------------------------9-7-5-7-5-----------------|
|---------------------------------------------9-7-5-7-5-------|
|-------------------------------------------------------5-----|

(He likes Phrygian):
|----------10----------------9----------------10----------------12-|
|------------------------------------------------------------------|
|-11-12-14----14-12-10-12-14---14-12-10-12-14----14-12-10-12-14----|
|------------------------------------------------------------------|
|------------------------------------------------------------------|
|------------------------------------------------------------------|

|----------------14----------------12----------------10-------------------|
|----------------------------------------------------------------------14-|
|-14-12-10-12-14----14-12-10-12-14----14-12-10-12-14----14-12-10-12-14----|
|-------------------------------------------------------------------------|
|-------------------------------------------------------------------------|
|-------------------------------------------------------------------------|

***Updated Run***

|----------10----------------10-12-14-15-14-12-------------------14-15-17-17b19~-17~-----|
|-10-12-14----14-12-10-12-14--------------------15-14-12-14-15-17------------------------|
|----------------------------------------------------------------------------------------|
|----------------------------------------------------------------------------------------|
|----------------------------------------------------------------------------------------|
|----------------------------------------------------------------------------------------|

|-14~-14~-14-15-17~-15-14----------------------------------------------14----------|
|-------------------------17~-15~-15~-15-17-19~-17-15-14~-----14-15-17----17-15-14-|
|---------------------------------------------------------16~----------------------|
|----------------------------------------------------------------------------------|
|----------------------------------------------------------------------------------|
|----------------------------------------------------------------------------------|

|-----------------------------------------------14-15-17b19-b21-17-|
|--------17-15-14-15-14----------------14-15-17--------------------|
|-14~-14----------------16-14-14h16-16-----------------------------|
|------------------------------------------------------------------|
|------------------------------------------------------------------|
|------------------------------------------------------------------|

MORE ELABORATE CANON!!

|-19p16----------------------------16-19p16-19p16----------------------------14-19p14-|
|-------17----------------------17----------------17----------------------16----------|
|----------16----------------16----------------------16----------------16-------------|
|-------------18----------18----------------------------18----------16----------------|
|----------------19-14h19----------------------------------19-14h18-------------------|
|-------------------------------------------------------------------------------------|

|-16p12----------------------------12-16p12-16p12-------------------------11-14p11------|
|-------14----------------------14----------------14-------------------12---------------|
|----------13----------------13----------------------13-------------11------------------|
|-------------14----------14----------------------------14-------13---------------------|
|----------------16-11h16----------------------------------16-14------------------------|
|---------------------------------------------------------------------------------------|

|-12p9-------------------------9-12p9-12p7---------------------7-12p7-|
|------10-------------------10-------------9-----------------9--------|
|---------9---------------9------------------9-------------9----------|
|-----------11---------11----------------------9---------9------------|
|--------------12-7h12---------------------------11-7h11--------------|
|---------------------------------------------------------------------|

|-12p9-------------------------9-12p9-/14p11---------------------------11-14p11-|
|------10-------------------10---------------12---------------------12----------|
|---------9---------------9---------------------11---------------11-------------|
|-----------11---------11--------------------------13---------13----------------|
|--------------12-7h12--------------------------------14-9h14-------------------|
|-------------------------------------------------------------------------------|
Repeat once

|-13p10---------------------------10-13p10-/18p13----------------------------13-18p13-|
|-------11---------------------11-----------------15----------------------15----------|
|----------10---------------10-----------------------15----------------15-------------|
|-------------12---------12-----------------------------15----------15----------------|
|----------------13-8h13-----------------------------------17-13h17-------------------|
|-------------------------------------------------------------------------------------|

|-15p12----------------------------11-15p12-/20p15-----------------------------15-20p15-|
|-------13----------------------13-----------------17-----------------------17----------|
|----------12----------------12-----------------------17-----------------17-------------|
|-------------14----------14-----------------------------17-----------17----------------|
|----------------15-10h15-----------------------------------19-15*h19-------------------|
|---------------------------------------------------------------------------------------|

|-17p14----------------------------13-17p14-/22p17----------------------------17-22p17-|
|-------15----------------------15-----------------19----------------------19----------|
|----------14----------------14-----------------------19----------------19-------------|
|-------------16----------16-----------------------------19----------19----------------|
|----------------17-12h17-----------------------------------21-17h21-------------------|
|--------------------------------------------------------------------------------------|


|-17p14----------------------------14-17p14--------------------------------------------10-|
|-------15----------------------15----------15--------------------------------------------|
|----------14----------------14----------------14-\11h14p11----------------------11h14----|
|-------------16----------16--------------------------------12----------------12----------|
|----------------17-12h17--------------------------------------12----------12-------------|
|-----------------------------------------------------------------14-12h14----------------|

Repeat once:
*End here on 15 second time (don’t go back up arp)

Thanks to NeoClassicalFan for noting my typo and mistake in arpeggio section!

[Insert intro arpeggios here for the outro]

Good Luck!

            
            
Suggest correction
Creating personal tab
Creating personal tab
You can edit any tab online and save it as your Personal.

You can edit, replace or remove any tab part or add personal notes – all changes will be seen only by you.

Personal tabs can be accessed anytime from any device, even offline.
Learn more »
comments
print report bad tab
14 comments total. Showing first comments.
+2 reply
SchecterSmile 10 Jul 22, 2008 10:57 AM

omg.. do you know where i can find an mp3 of this????

0 reply
Beckerhero 112 Jul 22, 2008 11:21 AM

http://www.youtube.com/watch?v=sS1hjVvwyi8 to get the mp3.

+1 reply
Alexdawsome 133 Aug 01, 2008 01:19 PM

holy shit you tabbed the whole song! Thats amazing, i might actualli learn this song now, ill be the first to rate it nd im going for 5 stars

btw im the guy who tabbed the intro to it although my account wasnt active when i did it so it counts as an anymouse person :p

ill check you out on youtube

guest
You may want to rate the tab now too:
select rating
Wanna post a correction for this tab? Suggest correction