Oops, an error
Loading. Please wait.

Givers - Ceiling Of Plankton bass

1,733 views 1 this week
no commentswrite comment
1 2 3 4 5
3 more votes to show rating
add to favorites
×
Save as Personal and add changes to this tab that will be seen only by you. Learn more ›
×
You can save this tab as Personal to edit and correct it or add notes. All changes will be seen only by you. Learn more »
launch autoscroll
font size
0
reset
guitar tuner
edit
Autoscroll
slow
fast
+/-
esc
set tempo
stop
Author
Difficulty
Ceiling of Plankton - Givers

Tabbed by ChristianMF

   Intro @0:00    x4
G-|----8-------8-------------------|----8-------8-------------------|
D-|--------------------------------|--------------------------------|
A-|6-------6-------------------6-5-|6-------6-----------------------|
E-|--------------------6---6-8-----|--------------------6-------6---|   x4


   Verse @0:17
G-|----8-------8-------8-------8---|----8-------8-------8-------8---|
D-|--------------------------------|--------------------------------|
A-|6-------6-------6-------6-------|6-------6-------6-------6-------|
E-|--------------------------------|--------------------------------|


   Verse
G-|----5-------5-------5-------5---|----5-------5-------5-------5---|
D-|--------------------------------|--------------------------------|
A-|3-------3-------3-------3-------|3-------3-------3-------3-------|
E-|--------------------------------|--------------------------------|


   Verse
G-|--------------------------------|--------------------------------|
D-|----6-------6-------6-------6---|----8-------8-------8-------8---|
A-|--------------------------------|--------------------------------|
E-|4-------4-------4-------4-------|6-------6-------6-------6-------|


   Verse
G-|--------------------------------|--------------------------------|
D-|----4-------4-------4-------4---|----6-------6-------6-------6---|
A-|--------------------------------|--------------------------------|
E-|3-------3-------3-------3-------|4-------4-------4-------4-------|


   Verse
G-|--------------------------------|--------------------------------|
D-|----6-------6-------6-------6---|----8-------8-------8-------8---|
A-|--------------------------------|--------------------------------|
E-|4-------4-------4-------4-------|6-------6-------6-------6-------|


   Verse
G-|--------------------------------|--------------------------------|
D-|----4-------4-------4-------4---|----6-------6-------6-------6---|
A-|--------------------------------|--------------------------------|
E-|3-------3-------3-------3-------|4-------4-------4-------4-------|

   Verse
G-|--------------------------------|--------------------------------|
D-|----8-------8-------8-------8---|--------------------------------|
A-|--------------------------------|--------------------------------|
E-|6-------6-------6-------6-------|--------------------------------|



   Bridge @0:45
G-|--------------------------------|--------------------------------|
D-|--------------------------------|--------------------------------|
A-|6-------------------------------|--------------------------------|
E-|--------------------------------|4-------------------------------|


   Bridge
G-|--------------------------------|--------------------------------|
D-|--------------------------------|--------------------------------|
A-|--------------------------------|--------------------------------|
E-|3-------------------------------|4-------------------------------|


   Bridge
G-|--------------------------------|--------------------------------|
D-|--------------------------------|--------------------------------|
A-|6-------------------------------|--------------------------------|
E-|--------------------------------|4-------------------------------|


   Bridge
G-|--------------------------------|--------------------------------|
D-|--------------------------------|--------------------------------|
A-|--------------------------------|--------------------------------|
E-|6-------------------------------|18------------------------------|


   Bridge
G-|--------------------------------|--------------------------------|
D-|--------------------------------|--------------------------------|
A-|6-------6-------6-------6-------|--------------------------------|
E-|--------------------------------|4-------4-------4-------4-------|


   Bridge
G-|--------------------------------|--------------------------------|
D-|--------------------------------|--------------------------------|
A-|--------------------------------|--------------------------------|
E-|3-------3-------3-------3-------|16------16------16------16------|


   Bridge
G-|-------------------------8------|--------------------------------|
D-|--------------------56----------|--------------------------------|
A-|6-------6-------6---------------|--------------------------------|
E-|--------------------------------|4-------4-------4-------4-------|


   Bridge
G-|--------------------------------|--------------------------------|
D-|--------------------------------|--------------------------------|
A-|--------------------------------|--------5---5---8---8---10--10--|
E-|6-------6-------6---6---6---6---|6---6---------------------------|


   Verse 2   @1:17
G-|----8-8-----8-------8-8-----8---|--------------------------------|
D-|--------------------------------|----6-6-----6-------6-6-----6---|
A-|6-------6-------6-------6-------|--------------------------------|
E-|--------------------------------|4-------4-------4-------4-------|

   Verse 2
G-|----4-4-----4-------4-4-----3---|--------------------------------|
D-|--------------------------------|----6-6-----6-------6-6-----6---|
A-|3-------3-------3-------3-------|--------------------------------|
E-|--------------------------------|4-------4-------4-------4-------|


   Verse 2
G-|----8-8-----8-------8-8-----8---|--------------------------------|
D-|--------------------------------|----6-6-----6-------6-6-----6---|
A-|6-------6-------6-------6-------|--------------------------------|
E-|--------------------------------|4-------4-------4-------4-------|

   Verse 2
G-|--------------------------------|--------------------------------|
D-|----8-8-----8-------8-8-----8---|--------------------------------|
A-|--------------------------------|--------------------------------|
E-|6-------6-------6-------6-------|6---6---6---6---6---6---6---6---|


I'm not sure about the fast part, but I'm pretty sure that's it. sooo...   ???????
   Breakdown @1:33
G-|--8---8-----8-----8---8----8----|--8---8-----8-------------------|
D-|--------------------------------|--------------------1010--------|
A-|6-------6-------6-------6-------|6-------6---------------11--13--|
E-|--------------------------------|----------------8-11------------|x2

    

   Breakdown
G-|--8---8-----8-------------------|--8---8-----8-------------------|
D-|--------------------1010--------|--------------------1010--------|
A-|6-------6---------------11--13--|6-------6---------------11--13--|
E-|----------------8-11------------|----------------8-11------------|x4


   Breakdown
G-|--------------------------------|--------------------------------|
D-|--------------------------------|--------------------------------|
A-|6-6---6-------------------------|6-6---6-------------------------|
E-|--------------------------------|--------------------------------|


   Breakdown
G-|--------------------------------|--------------------------------|
D-|--------------------------------|--------------------------------|
A-|6-6---6-------------------------|6-6---6---6-6-6-6---------------|
E-|--------------------------------|--------------------6---6-------|


   Build-up                         @2:07
G-|--------------------------------|--------------------------------|
D-|--------------------------------|--------------------------------|
A-|----------------5-------8-------|6-------------------------------|
E-|--------------------------------|--------------------------------|


   Build-up
G-|--------------------------------|--------------------------------|
D-|--------------------------------|--------------------------------|
A-|--------------------------------|--------------------------------|
E-|4-------------------------------|3-------------------------------|



   Build-up
G-|--------------------------------|--------------------------------|
D-|--------------------------------|--------------------------------|
A-|--------------------------------|6-------------------------------|
E-|6-------------------------------|--------------------------------|


   Build-up
G-|--------------------------------|--------------------------------|
D-|--------------------------------|--------------------------------|
A-|--------------------------------|--------------------------------|
E-|4-------------------------------|3-------------------------------|


   Build-up
G-|--------------------------------|--------------------------------|
D-|--------------------------------|------------------------5-------|
A-|--------------------------------|--------5-------8---------------|
E-|6-------------------------------|6-------------------------------|



   Build-up "And   when    you      no      tice    all     your..."

                                                   |?????????|-This fill may be guitar.. idk
G-|--------------------------------|----------------8-------8-------|
D-|--------------------------------|--------------------6-----------|
A-|6-------------------------------|--------------------------------|
E-|--------------------------------|4-------------------------------|


   Build-up
G-|--------------------------------|--------------------------------|
D-|--------------------------------|--------------------------------|
A-|--------------------------------|--------------------------------|
E-|3-----------------------/-------|16------------------------------|


   Build-up                         ?
G-|--------------------------------|--------------------------------|
D-|----------------------------5---|6-------------------------------|
A-|6-------------------------------|--------------------------------|
E-|--------------------------------|4-------------------------------|


   Build-up
G-|--------------------------------|--------------------------------|
D-|--------------------------------|--------------------------------|
A-|--------------------------------|--------------------------------|
E-|6-----------------------/-------|18------------------------------|


   Build-up
G-|--------------------------------|--------------------------------|
D-|--------------------------------|--------------------------------|
A-|6-------------------------------|--------------------------------|
E-|--------------------------------|4-------------------------------|


   Build-up
G-|--------------------------------|--------------------------------|
D-|--------------------------------|6-------------------------------|
A-|--------------------------------|--------------------------------|
E-|3-------------------------------|--------------------------------|



   Build-up
G-|--------------------------------|--------------------------------|
D-|--------------------------------|--------------------------------|
A-|6-------------------------------|--------------------------------|
E-|--------------------------------|4-------------------------------|


   Build-up
G-|--------------------------------|--------------------------------|
D-|--------------------------------|------------------------5---5---|
A-|--------------------------------|--------5---5---8---8-----------|
E-|6-------6-------6---6---6---6---|6---6---------------------------|




   Verse 3  @2:58
G-|----8-8-----8-------8-8-----8---|--------------------------------|
D-|--------------------------------|----6-6-----6-------6-6-----6---|
A-|6-------6-------6-------6-------|--------------------------------|
E-|--------------------------------|4-------4-------4-------4-------|

   Verse 3
G-|----4-4-----4-------4-4-----3---|--------------------------------|
D-|--------------------------------|----6-6-----6-------6-6-----6---|
A-|3-------3-------3-------3-------|--------------------------------|
E-|--------------------------------|4-------4-------4-------4-------|


   Verse 3
G-|----8-8-----8-------8-8-----8---|--------------------------------|
D-|--------------------------------|----6-6-----6-------6-6-----6---|
A-|6-------6-------6-------6-------|--------------------------------|
E-|--------------------------------|4-------4-------4-------4-------|

   Verse 3
G-|--------------------------------|--------------------------------|
D-|----8-8-----8-------8-8-----8---|--------------------------------|
A-|--------------------------------|--------------------------------|
E-|6-------6-------6-------6-------|6---6---6---6---6---6---6---6---|



Verse 3
G-|----8-8-----8-------8-8-----8---|--------------------------------|
D-|--------------------------------|----6-6-----6-------6-6-----6---|
A-|6-------6-------6-------6-------|--------------------------------|
E-|--------------------------------|4-------4-------4-------4-------|

   Verse 3
G-|----4-4-----4-------4-4-----3---|--------------------------------|
D-|--------------------------------|----6-6-----6-------6-6-----6---|
A-|3-------3-------3-------3-------|--------------------------------|
E-|--------------------------------|4-------4-------4-------4-------|


   Verse 3
G-|----8-8-----8-------8-8-----8---|--------------------------------|
D-|--------------------------------|----6-6-----6-------6-6-----6---|
A-|6-------6-------6-------6-------|--------------------------------|
E-|--------------------------------|4-------4-------4-------4-------|

   Verse 3
G-|--------------------------------|--------------------------------|
D-|----8-8-----8-------8-8-----8---|------------------------5---5---|
A-|--------------------------------|--------5---5---8---8-----------|
E-|6-------6-------6-------6-------|6---6---------------------------|


@3:29
Now just go crazy on the bass.

?


Suggest correction
Creating personal tab
Creating personal tab
You can edit any tab online and save it as your Personal.

You can edit, replace or remove any tab part or add personal notes – all changes will be seen only by you.

Personal tabs can be accessed anytime from any device, even offline.
Learn more »
Give kudos to tab author, rate the tab!
1 2 3 4 5
comments
print report bad tab
guest
You may want to rate the tab now too:
select rating
Wanna post a correction for this tab? Suggest correction