Oops, an error
Loading. Please wait.

Good Mates With P Plates - Dear Idiot tab

40 views 1 this week
1 commentread comment
1 2 3 4 5
1 last vote to show rating
add to favorites
×
Save as Personal and add changes to this tab that will be seen only by you. Learn more ›
×
You can save this tab as Personal to edit and correct it or add notes. All changes will be seen only by you. Learn more »
launch autoscroll
font size
0
reset
how to read this tab
guitar tuner
edit
Autoscroll
slow
fast
+/-
esc
set tempo
stop
[Intro]
e|-----------------------------------------------------------------------------------------------|
B|-----------------------------------------------------------------------------------------------|
G|---------------------------------x-x-5-x-x-5-x-x-x-x-5-x-x-5-x---------------------------------|
D|-x-x-3-x-x-3-x-x-x-x-3-x-x-3-x-x-x-x-5-x-x-5-x-x-x-x-5-x-x-5-x-x-x-7-x-7-x-x-x-x-7-x-x-7-x-x---|
A|-x-x-3-x-x-3-x-x-x-x-3-x-x-3-x-x-x-x-3-x-x-3-x-x-x-x-3-x-x-3-x-x-x-7-x-7-x-x-x-x-7-x-x-7-x-x---|
E|-x-x-1-x-x-1-x-x-x-x-1-x-x-1-x-x-------------------------------x-x-5-x-5-x-x-x-x-5-x-x-5-x-x---|

e|-----------------------------------------------------------------------------------------------|
B|-----------------------------------------------------------------------------------------------|
G|-----------------------------------------------------------------------------------------------|
D|-x-x-5-x-x-5-x-x-x-x-5-x-x-5-x-x---------------------------------------------------------------|    [x2]
A|-x-x-5-x-x-5-x-x-x-x-5-x-x-5-x-x---------------------------------------------------------------|
E|-x-x-3-x-x-3-x-x-x-x-3-x-x-3-x-x---------------------------------------------------------------|


[Verse]
e|---------------------------------------------------------------------------------------------|
B|---------------------------------------------------------------------------------------------|
G|-------------------------------------x-x-5-x-x-5-x-5-5-5-x-x-5-x-x-5-x-x---------------------|
D|-x-x-3-x-x-3-x-3-3-3-x-x-3-x-x-3-x-x-x-x-5-x-x-5-x-5-5-5-x-x-5-x-x-5-x-x---------------------|
A|-x-x-3-x-x-3-x-3-3-3-x-x-3-x-x-3-x-x-x-x-3-x-x-3-x-3-3-3-x-x-3-x-x-3-x-x---------------------|
E|-x-x-1-x-x-1-x-1-1-1-x-x-1-x-x-1-x-x---------------------------------------------------------|

e|---------------------------------------------------------------------------------------------|
B|---------------------------------------------------------------------------------------------|
G|---------------------------------------------------------------------------------------------|
D|-x-x-7-x-x-7-x-5-7-7-x-x-7-x-x-7-x-x-x-x-5-x-x-5-x-5-5-5-x-x-5-x-x-5-x-x---------------------|  [x3 approx]
A|-x-x-7-x-x-7-x-7-7-7-x-x-7-x-x-7-x-x-x-x-5-x-x-5-x-5-5-5-x-x-5-x-x-5-x-x---------------------|
E|-x-x-5-x-x-5-x-5-5-5-x-x-5-x-x-5-x-x-x-x-3-x-x-3-x-3-3-3-x-x-3-x-x-3-x-x---------------------|

[Pre-chorus]
e|---------------------------------------------------------------------------------------------|
B|---------------------------------------------------------------------------------------------|
G|---------------------------------------------------------------------------------------------|
D|-3-3-3--------3-3-3---------------3-3-3---333--3-3---333---3-3-3---333---3-3-3---------------|
A|-3-3-3--------3-3-3---------------3-3-3---333--3-3---333---3-3-3---333---3-3-3---------------|
E|-1-1-1--------1-1-1---------------1-1-1---111--1-1---111---1-1-1---111---1-1-1---------------|

[Chorus-lead]
e|------------------------------------------------------------------------------------------------------|
B|------------------------------------------------------------------------------------------------------|
G|------------------------------------------------------------------------------------------------------|
D|------------------------------------------------------------------------------------------------------|
A|--------------------------------------3-3-3-3-3-3-3-0-3-3-3-3-3-3-3-0---------------------------------|
E|-12/1-1-1-1-1-1-1-1-0-1-1-1-1-1-1-1-0---------------------------------5-5-5-5-5-5-5-0-5-5-5-5-5-5-5/3-|

e|---------------------------------------------------------------------------|
B|---------------------------------------------------------------------------|
G|---------------------------------------------------------------------------|
D|---------------------------------------------------------------------------| [x2]
A|---------------------------------------------------------------------------|
E|-3-3-3-3-3-3-3-0-3-3-3-3-3-3-3-0-------------------------------------------|

final rep end on singular 1

[Chorus-rhythm]
e|---------------------------------------------------------------------------|
B|---------------------------------------------------------------------------|
G|---------------------------------5-5-5-5-5-5-5-5-5-5-5-5-5-5-5-5-----------|
D|-3-3-3-3-3-3-3-3-3-3-3-3-3-3-3-3-5-5-5-5-5-5-5-5-5-5-5-5-5-5-5-5-----------|
A|-3-3-3-3-3-3-3-3-3-3-3-3-3-3-3-3-3-3-3-3-3-3-3-0-3-3-3-3-3-3-3-0-----------|
E|-1-1-1-1-1-1-1-0-1-1-1-1-1-1-1-0-------------------------------------------|

e|---------------------------------------------------------------------------|
B|---------------------------------------------------------------------------|
G|---------------------------------------------------------------------------|
D|-7-7-7-7-7-7-7-7-7-7-7-7-7-7-7/7-5-5-5-5-5-5-5-5-5-5-5-5-5-5-5-------------|   [x2]
A|-7-7-7-7-7-7-7-7-7-7-7-7-7-7-7/7-5-5-5-5-5-5-5-5-5-5-5-5-5-5-5-------------|
E|-5-5-5-5-5-5-5-0-5-5-5-5-5-5-5/3-3-3-3-3-3-3-0-3-3-3-3-3-3-3-0-------------|

[Ending-rhythm]
e|---------------------------------------------------------------------------|
B|---------------------------------------------------------------------------|
G|-5---5-5-5-5---5-----------------------------------------------------------|
D|-5---5-5-5-5---5-7---7-7-7-7---7-5---5-5-5-5---5-3---3-3-3-3---------------|
A|-3---3-3-3-3---3-7---7-7-7-7---7-5---5-5-5-5---5-3---3-3-3-3---------------|
E|-----------------5---5-5-5-5---5-3---3-3-3-3---3-1---1-1-1-1---------------|

[Ending-lead]: played after 3 reps of chorus towards end of song
e|---------------------------------------------------------------------------|
B|---------------------------------------------------------------------------|
G|---------------------------------------------------------------------------|
D|---------------------------------------------------------------------------|
A|-3-3-3-3-3-3-3-5-3-3-3-3-3-3-3-5-----------------------------------------------------------|
E|---------------------------------5-5-5-5-5-5-5-7-5-5-5-5-5-5-5\3-3-3-3-3-3-3-5-----------|

e|---------------------------------------------------------------------------|
B|---------------------------------------------------------------------------|
G|---------------------------------------------------------------------------|
D|---------------------------------------------------------------------------|
A|---------------------------------------------------------------------------|
E|-3-3-3-3-3-3-3\1-1-1-1-1-1-1-0-1-1-1-1-1-1-1-0-----------------------------------------------------|

Sequence Order
-[Intro] x2
-[Verse] x3
-[Pre-chorus]
-[Chorus] x2
-[Verse] x3
-[Pre-chorus]
-[Chorus] x2
-[Verse] x3
-[Pre-chorus] 
-[Chorus] x3
-[Ending Rhythm] x2
-[Pre-chorus]
-[Chorus] x2
-[Ending-lead] x2
-[Chorus-lead only part] x1

************************************

| x  Dead note
| /  Slide up
| \  Slide down

************************************
Suggest correction
Creating personal tab
Creating personal tab
You can edit any tab online and save it as your Personal.

You can edit, replace or remove any tab part or add personal notes – all changes will be seen only by you.

Personal tabs can be accessed anytime from any device, even offline.
Learn more »
Give kudos to tab author, rate the tab!
1 2 3 4 5
comments
print report bad tab
1 comment total.
-1 reply
juicybrucey 10 Jul 18, 2017 07:10 PM

this song is bad

guest
Wanna post a correction for this tab? Suggest correction