Oops, an error
Loading. Please wait.

Guns Of Autumn - Walking Beneath The Surface tab

71 views 1 this week
no commentswrite comment
1 2 3 4 5
3 more votes to show rating
add to favorites
×
Save as Personal and add changes to this tab that will be seen only by you. Learn more ›
×
You can save this tab as Personal to edit and correct it or add notes. All changes will be seen only by you. Learn more »
launch autoscroll
font size
0
reset
how to read this tab
guitar tuner
edit
Autoscroll
slow
fast
+/-
esc
set tempo
stop
This is the second track to our EP - The Damned and The Dead. We use 7 string 
guitars tuned to drop A.


Riff 1

e------------------------------------------|
b------------------------------------------|
g------------------------------------------|
d------------------------------------------|
a------------------------------------------|
e------------------------------------------|
A-000-000-000-0-000-0-000-0-000------------|

Riff 2 (Over Riff 1)

e------------------------------------------|
b------------------------------------------|
g------------------------------------------|
d-7~-7~-8~-7~-5~-3~-7~-7~-8~-7/14----------|
a------------------------------------------|
e-5~-5~-5~-5~-3~-1~-5~-5~-5~-5/12----------|
A------------------------------------------|

Riff 3

e-----------------------------------------------|
b-----------------------------------------------|
g-----------------------------------------------|
d-----------------------------------------------|
a-----------------------------------------------|
e---------8-7---------5-7---------8-7-10-8-7-5--|
A-000-000-----000-000-----000-000---------------|

e-----------------------------------------------|
b-----------------------------------------------|
g-----------------------------------------------|
d---------------------------------10-8-7h8p7\5--|
a-----------------------------------------------|
e---------8-7---------5-7-----------------------|
A-000-000-----000-000-----000-000---------------|

Riff 3 (Harmony)

e-----------------------------------------------|
b-----------------------------------------------|
g-----------------------------------------------|
d-----------------------------------------------|
a---------7-5---------3-5---------7-5-8-7-5-3---|
e-----------------------------------------------|
A-000-000-----000-000-----000-000---------------|

e-----------------------------------------------|
b-----------------------------------------------|
g-----------------------------------------------|
d---------------------------------10-8-7h8p7\5--|
a---------7-5---------3-5-----------------------|
e-----------------------------------------------|
A-000-000-----000-000-----000-000---------------|


Riff 4


e-----------------------------------------------|
b-----------------------------------------------|
g-----------------------------------------------|
d-----------------------------------------------|
a-0~------------0~------------\\\\\\\\\\\\\-----|
e-0~------------0~------------\\PICKSLIDE\\-----|
A-0~------------0~------------\\\\\\\\\\\\\-----|

Riff 5

e------------------------------------------------------------|
b------------------------------------------------------------|
g------------------------------------------------------------|
d------------------------------------------------------------|
a------------------------------------------------------------|
e-----8---7-----5---7-------------8---7-----10---8---7---5---|
A-000---0---000---0---000-000-000---0---000----0---0---0---0-|

e------------------------------------------------------------|
b------------------------------------------------------------|
g------------------------------------------------------------|
d--------------------------------------------10-8-7h8p7\5----|
a------------------------------------------------------------|
e-----8---7-----5---7-------------8---7----------------------|
A-000---0---000---0---000-000-000---0---000------------------|

Riff 5 (Harmony)

e------------------------------------------------------------|
b------------------------------------------------------------|
g------------------------------------------------------------|
d------------------------------------------------------------|
a-----7---5-----3---5-------------7---5-----8---7---5---3----|
e------------------------------------------------------------|
A-000---0---000---0---000-000-000---0---000---0---0---0---0--|

e------------------------------------------------------------|
b------------------------------------------------------------|
g------------------------------------------------------------|
d--------------------------------------------10-8-7h8p7\5----|
a-----7---5-----3---5-------------7---5----------------------|
e------------------------------------------------------------|
A-000---0---000---0---000-000-000---0---000------------------|

Riff 5 (Back up Guitar)

e------------------------------------------------------------|
b------------------------------------------------------------|
g------------------------------------------------------------|
d------------------------------------------------------------|
a------------------------------------------------------------|
e------------------------------------------------------------|
A-000-------000-------000-000-000-------000------00----------|

e------------------------------------------------------------|
b------------------------------------------------------------|
g------------------------------------------------------------|
d------------------------------------------------------------|
a------------------------------------------------------------|
e------------------------------------------------000---------|
A-00~-------00~-------00-00-00~-------00~--------111~--------|

Riff 6 (Breakdown Pt.1)

e------------------------------------------|
b------------------------------------------|
g------------------------------------------|
d------------------------------------------|
a------------------------------------------|
e-000-000-000-0-0~---0~---0~---------------|
A-111-111-111-1-1~---1~---1~---------------|

Riff 6 (Breakdown Pt.2)

(Repeat Riff 1 Pattern)

Riff 7

e-------------------------------------------------------|
b-------------------------------------------------------|
g-------------------------------------------------------|
d-------------------------------------------------------|
a-------------------------------------------------------|
e-------5-----7---------12-----8-----8h10p8h10-7h8p7h8--|
A-0-0-0---0-0---0-0-0-0----0-0---0-0--------------------|

e-------------------------------------------------------|
b-------------------------------------------------------|
g-------------------------------------------------------|
d-------------------------------------------------------|
a------------------------8~-5~-7~-3~--------------------|
e-------5-----7----------8~-5~-7~-3~--------------------|
A-0-0-0---0-0---0-0-0-0--8~-5~-7~-3~--------------------|

e-------------------------------------------------------|
b-------------------------------------------------------|
g-------------------------------------------------------|
d-------------------------------------------------------|
a-------------------------------------------------------|
e-------5-----7---------12-----8-----8h10p8h10-7h8p7h8--|
A-0-0-0---0-0---0-0-0-0----0-0---0-0--------------------|

e-------------------------------------------------------|
b-------------------------------------------------------|
g-------------------------------------------------------|
d-------------------------------------------------------|
a----------------------------7777----5555~--------------|
e-------5-----7----------8888----7777-------------------|
A-0-0-0---0-0---0-0-0-0---------------------------------|

Riff 7 (Harmony)

e-------------------------------------------------------|
b-------------------------------------------------------|
g-------------------------------------------------------|
d-------------------------------------------------------|
a-------3-----5---------10-----7-----7h8p7h8--5h7p5h7---|
e-------------------------------------------------------|
A-0-0-0---0-0---0-0-0-0----0-0---0-0--------------------|


e-------------------------------------------------------|
b-------------------------------------------------------|
g-------------------------------------------------------|
d-------------------------------------------------------|
a-------3-----5----------8~-5~-7~-3~--------------------|
e------------------------8~-5~-7~-3~--------------------|
A-0-0-0---0-0---0-0-0-0--8~-5~-7~-3~--------------------|

e-------------------------------------------------------|
b-------------------------------------------------------|
g-------------------------------------------------------|
d-------------------------------------------------------|
a-------3-----5---------10-----7-----7h8p7h8--5h7p5h7---|
e-------------------------------------------------------|
A-0-0-0---0-0---0-0-0-0----0-0---0-0--------------------|

e-------------------------------------------------------|
b-------------------------------------------------------|
g-------------------------------------------------------|
d-------------------------------------------------------|
a-------3-----5--------------5555----4444~--------------|
e------------------------7777----5555-------------------|
A-0-0-0---0-0---0-0-0-0---------------------------------|

Solo (Over Riff 7)


e--------------------------------------------------------------|
b--------------------------------------------------------------|
g--------------------------------------------------------------|
d-----------------------7-9-10-7~-10-10-10-9-9-9-12-12-12-10~--|
a----------5-7-8-7-8-10----------------------------------------|
e-5~-5-7-8-----------------------------------------------------|
A--------------------------------------------------------------|


e------------------------------13-------12-------10~-----------|
b-------10-----12------13---------------------13---------------|
g-9-9-9----9-9----9-9-----9-9-----10-10----10------------------|
d--------------------------------------------------------------|
a--------------------------------------------------------------|
e--------------------------------------------------------------|
A--------------------------------------------------------------|


e-8h12p8--------------------7h10p7----------------5h8p5---------------|
b--------10--------------10--------8------------8-------6-----------6-|
g-----------9----------9-------------7--------7-----------5-------5---|
d-------------10----10-----------------9----9---------------7---7-----|
a----------------12----------------------10-------------------8-------|
e---------------------------------------------------------------------|
A---------------------------------------------------------------------|


e-7h10p7---------------------------------------------------------------|
b--------8------------8/10~--10/12-12-12-12/13-13-13\12-12-12\-10~-----|
g----------7--------7--------------------------------------------------|
d------------9----9----------------------------------------------------|
a--------------10------------------------------------------------------|
e----------------------------------------------------------------------|
A----------------------------------------------------------------------|

e-13~-12-10~-12-13-15~-13-15-17~---17-15-13-15-13-12-13-12----12-------|
b----------------------------------------------------------15----15-13-|
g----------------------------------------------------------------------|
d----------------------------------------------------------------------|
a----------------------------------------------------------------------|
e----------------------------------------------------------------------|
A----------------------------------------------------------------------|

e------------------------12p8-------------------------8h12t1712p8------|
b-15-13-12-13-12--------------10-------------------10-------------10---|
g----------------14-13~----------9---------------9-------------------9-|
d----------------------------------10---------10-----------------------|
a-------------------------------------12p7h12--------------------------|
e----------------------------------------------------------------------|
A----------------------------------------------------------------------|

e----------------------------------------------------------------------|
b-----------------10~--------------------------------------------------|
g---------------9------------------------------------------------------|
d-10---------10--------------------------------------------------------|
a----12p7h12-----------------------------------------------------------|
e----------------------------------------------------------------------|
A----------------------------------------------------------------------|


Riff 8


e---------------------------------------------|
b---------------------------------------------|
g---------------------------------------------|
d---------------------------------------------|
a----------------------------------8-----7----|
e-------5-----5~-------8-----7----------------|
A-0-0-0---0-0----0-0-0---0-0---0-0---0-0------|


e---------------------------------------------|
b---------------------------------------------|
g---------------------------------------------|
d---------------------------------------------|
a----------------------3------------3-----5---|
e-------3-----3~------------5-----------------|
A-0-0-0---0-0----0-0-0---0-0---0-0---0-0------|


e---------------------------------------------|
b---------------------------------------------|
g---------------------------------------------|
d---------------------------------------------|
a----------------------------------8-----7----|
e-------5-----5~-------8-----7----------------|
A-0-0-0---0-0----0-0-0---0-0---0-0---0-0------|


(ENDING # 1 OF RIFF 8)

e---------------------------------------------|
b---------------------------------------------|
g---------------------------------------------|
d---------------------------------------------|
a----------------------3------------5-----2---|
e-------3-----3~------------5-----------------|
A-0-0-0---0-0----0-0-0---0-0---0-0---0-0------|


Riff 8 (Harmony)


e---------------------------------------------|
b---------------------------------------------|
g---------------------------------------------|
d----------------------------------7----5-----|
a-------3-----3~-------7-----5----------------|
e---------------------------------------------|
A-0-0-0---0-0----0-0-0---0-0---0-0---0-0------|


e---------------------------------------------|
b---------------------------------------------|
g---------------------------------------------|
d----------------------2-----------2-----3----|
a-------2-----2~-------------3----------------|
e---------------------------------------------|
A-0-0-0---0-0----0-0-0---0-0---0-0---0-0------|


e---------------------------------------------|
b---------------------------------------------|
g---------------------------------------------|
d----------------------------------7----5-----|
a-------3-----3~-------7-----5----------------|
e---------------------------------------------|
A-0-0-0---0-0----0-0-0---0-0---0-0---0-0------|


(ENDING # 2 OF RIFF 8)


e---------------------------------------------|
b---------------------------------------------|
g---------------------------------------------|
d---------------------------------------------|
a---------------------------------------------|
e---------------------------------------------|
A-8888885555557777773~~~~2~~~~~---------------|


Riff 9 (End Breakdown)


e------------------------------------------------|
b------------------------------------------------|
g------------------------------------------------|
d------------------------------------------------|
a------------------------------------------------|
e------------------------------------------------|
A-0-0--0-0--0-0--0-0--11--11--11--(1's not 11----|s)

e-----------------------------------------------|
b-----------------------------------------------|
g-----------------------------------------------|
d-----------------------------------------------|
a-----------------------------------------------|
e-----------------------------------------------|
A-0-0--0-0--0-0---------------------------------|


Riff 2 (Over Riff 9)


Song Order:

Riff 1 x 6
Riff 2 x 2 (Over last 2 times Riff 1 is played)
Riff 3 x 2
Riff 3 (Harmony) x 1 (Played last time with through Riff 3)
Riff 4 x 1
Riff 5 x 4
Riff 5 (Harmony) x 1 (Played on 2nd time through Riff 5)
Riff 5 (Back up Guitar) x 2 (Played behind last 2 times through Riff 5)
Riff 6 (Pt.1) x 4
Riff 6 (Pt.2) x 4
Riff 7 x 4
Riff 7 (Harmony) x 1 (Played second time through Riff 7)
Solo (Played over last two times through Riff 7)
Riff 8 x 2
Riff 8 (Harmony) x 1 (Played last time through Riff 8)
Ending to Riff 8 x 1 (Played last time through Riff 8 in place of ending #1)
Riff 9 (Breakdown) x 6
Riff 2 (Over Riff 9) x 2 (Played last 2 times of Riff 9)


That's every part of the song. Enjoy.
Suggest correction
Creating personal tab
Creating personal tab
You can edit any tab online and save it as your Personal.

You can edit, replace or remove any tab part or add personal notes – all changes will be seen only by you.

Personal tabs can be accessed anytime from any device, even offline.
Learn more »
Give kudos to tab author, rate the tab!
1 2 3 4 5
comments
print report bad tab
guest
You may want to rate the tab now too:
select rating
Wanna post a correction for this tab? Suggest correction