Oops, an error
Loading. Please wait.

Gustavo Kurlat - Airgela Chords

10 views 1 this week
no commentswrite comment
1 2 3 4 5
2 more votes to show rating
add to favorites
launch autoscroll
font size
0
reset
transpose
0
reset
display chords
guitar tuner
Autoscroll
slow
fast
+/-
esc
set tempo
stop
Help us to improve Ultimate-Guitar.com Take our survey!
×
About this tab version
Includes a transcription for guitar of the flute part in the outro. Was this info helpful? Yes No
Soundtrack of the Brazilian cartoon "O Menino e O Mundo"(The Boy and the World).

[Verse]
B
mif mesomav apacse opmeto
A
rofele ese orpos mu omoc
G         A
oledrep somav
Em
asserp mese asserp moc ragehc
A
asserp mese asserp moc ragehc
G       A
eri arelav


[Chorus]
    D     A
airgela adiv
    G      A
aigrene açrof
      G       A
roma zap edadrebil
    G    A
zov edatnov
   D
airgela

    G     A
airgela adiv
    G      A
aigrene açrof
      G       A
roma zap edadrebil
    G    A
zov edatnov
   D
airgela
   G
airgela

    D     A
airgela adiv
    G      A
aigrene açrof
      G       A
roma zap edadrebil
    G    A
zov edatnov
   D
airgela
   G
airgela
   D
airgela

D     A         D

[Outro]
          G                 A              G             A
e-------7-10--7--------------------------7-10--7-------7-------
B----10---------10-----10-7----7------10---------10------10----
G---------------------------9----------------------------------
D--------------------------------------------------------------
A--------------------------------------------------------------
E--------------------------------------------------------------

            G         A         G      A               D
e-----------------------------------7----------------7-10--7----
B-----------7---10--7----7---10-8------10--------10---------10--
G-------7-9-----------9-----------------------------------------
D---------------------------------------------------------------
A---------------------------------------------------------------
E---------------------------------------------------------------
Suggest correction
Give kudos to tab author, rate the tab!
1 2 3 4 5
comments
print report bad tab
guest
You may want to rate the tab now too:
select rating
Wanna post a correction for this tab? Suggest correction