Oops, an error
Loading. Please wait.

Gwen Stacy - Sleeping In The Train Yard tab

2,296 views 3 this week
1 commentread comment
1 2 3 4 5
x 3
add to favorites
×
Save as Personal and add changes to this tab that will be seen only by you. Learn more ›
×
You can save this tab as Personal to edit and correct it or add notes. All changes will be seen only by you. Learn more »
launch autoscroll
font size
0
reset
how to read this tab
guitar tuner
edit
Autoscroll
slow
fast
+/-
esc
set tempo
stop
I think this song is pretty much all correct. There may be a few errors, but I think 
so small that you can figure them out.

Just look to the times if you get lost.

Any questions e-mail me.

Artist: Gwen Stacy
Album: The Life I Know
Song: Sleeping in the Train Yard

e-mail – poppyben@gmail.com
Myspace – www.myspace.com/benthedragongod

Legend
PM – Palm Mute
~ - Let ring
S – slide
X – Mute note
V – Vibrato
*(P.H) - Pinch Harmonic
*(N.H) – Natural Harmonic
p – pull-off
h – hammer-on

Tuning: Drop C


(0:00-0:08)Intro Techno Noises


(0:08-2:10) Guitar 1
D|-------8------5~----------8------5~------------------------------|
A|--6~-----6-----------6~-----6----------6--5555555~---5555555~----|
F|--7~--------7--------7~--------7-------7--5-5-5-5~---5-5-5-5~----|
C|-----------------------------------------------------------------|
G|-----------------------------------------------------------------|
C|-----------------------------------------------------------------|x8

(1:09-2:10) Guitar 2
D|--------------------------|
A|--------------------------|
F|--------------------------|
C|--------------------------|
G|---8—(x32)-----3—(x32)----|
C|--------------------------|x4
PM   .           .

(2:10-3:11) Guitar 1
D|------8-----5------------<<--------------------------<<---------|
A|-6~-----6--------6-6-5h6—-<-(x2)--5~--6---6--6-6-5h6--<-(x2)----|
F|-7~-------7-----7-7-7----<<-------5~-----5--5-5-5----<<---------|
C|----------------------------------------------------------------|
G|----------------------------------------------------------------|
C|----------------------------------------------------------------|x4

(3:11-4:13) Guitar 1&2
D|--------------8-----5----0-----|    |-(On the 3rd time, then repeat x3---|
A|----------------6-----6--------|    |------------------------------------|
F|------------------7-----7------|    |-10---------12----------------------|
C|--0---00-7---0~----------------|    |--x-(x8)-----x—(x8)-----------------|
G|--0---00-5---0~----------------|    |--8---------10----------------------|
C|--0---00-----0~----------------|x3  |------------------------------------|
PM      ..


(4:13-4:28)(4:36-4:51) Guitar 1
D|----------------------------------------------------|
A|--6-66-----6-66-----6-6--5-55-----5-55-----5-55-----|
F|--7-77-----7-77-----7-7--7-77-----7-77-----7-77-----|
C|-------0-0------0-0-----------0-0------0-0----------|
G|-------0-0------0-0-----------0-0------0-0----------|
C|-------0-0------0-0-----------0-0------0-0----------|x2
PM       . .      . .           . .      . .

(4:28-4:36)(4:51-4:59) Guitar 1
D|-----------------------------------------------------|
A|--5-55-----5-55-----5-5s10-10-10-----8-8-----8-8-----|
F|--5-55-----5-55-----5-5s10-10-10-----9-9-----9-9-----|
C|-------0-0------0-0--------------0-0-----0-0---------|
G|-------0-0------0-0--------------0-0-----0-0---------|
C|-------0-0------0-0--------------0-0-----0-0---------|
PM       . .      . .              . .     . .


(4:59-5:14)(5:22-5:37) Guitar 1
D|----------------------------------------------------|
A|----------------------------------------------------|
F|--7-77-----7-77-----7-7--3-33-----3-33-----3-33-----|
C|--x-xx-0-0-x-xx-0-0-x-x--x-xx-0-0-x-xx-0-0-x-xx-----|
G|--5-55-0-0-5-55-0-0-5-5--1-11-0-0-1-11-0-0-1-11-----|
C|-------0-0------0-0-----------0-0------0-0----------|x2
PM       . .      . .           . .      . .

(4:59-5:14)(5:22-5:37) Guitar 2
D|----------------------------------------------------|
A|----------------------------------------------------|
F|----------------------------------------------------|
C|--7-77-0-0-7-77-0-0-7-7--3-33-0-0-3-33-0-0-3-33-----|
G|--5-55-0-0-5-55-0-0-5-5--1-11-0-0-1-11-0-0-1-11-----|
C|-------0-0------0-0-----------0-0------0-0----------|x2
PM       . .      . .           . .      . .


(5:15-5:22)(5:37-5:45) Guitar 1
D|----------------------------------------------------------|
A|----------------------------------------------------------|
F|--5-55-----5-55-----5-55—10-1010-----9--9-----9-9---------|
C|--x-xx-0-0-x-xx-0-0-x-xx--x-x-x--0-0-x--x-0-0-x-x---------|
G|--3-33-0-0-3-33-0-0-3-33--8-8-8—-0-0-7--7-0-0-7-7---------|
C|-------0-0------0-0--------------0-0------0-0-------------|
PM       . .      . .              . .      . .

(5:15-5:22)(5:37-5:45) Guitar 2
D|-----------------------------------------------------------|
A|-----------------------------------------------------------|
F|--5-55-----5-55-----5-55—10-1010------9--9-----9-9---------|
C|--5-55-0-0-5-55-0-0-5-55-10-1010--0-0-x--x-0-0-x-x---------|
G|--3-33-0-0-3-33-0-0-3-33--8--8-8—-0-0-7--7-0-0-7-7---------|
C|-------0-0------0-0---------------0-0------0-0-------------|
PM       . .      . .               . .      . .
(5:45-5:49)Guitar 1
D|---------------------|
A|--6-6-6--------------|
F|--7-7-7--------------|
C|---------0-0---------|
G|---------0-0---------|
C|---------0-0---------|x3
PM         . .

(5:49-6:50)Guitar 1&2
D|----------------------------------------------------|
A|----------------------------------------------------|
F|-10----------------------------------7--------------|
C|--0--------8--------10-------7-------7—(x16)--------|
G|--0-(x16)--8-(x16)—-10-(x8)--7-(x8)--5--------------|
C|--0--------8--------10-------7----------------------|x4


(6:50-6:58)Guitar 1&2
D|----------------|
A|----------------|
F|------7---------|
C|--0---7—(x8)----|
G|--0---5---------|
C|--0-------------|x4
PM  .

(6:58-7:00) Guitar 1
D|----------------------|
A|--6-6---6-6-6-6-------|
F|--7-7---7-7-7-7-------|
C|------0---------0-----|
G|------0---------0-----|
C|------0---------0-----|
PM      .         .

(7:02-7:12) Guitar 1&2
D|------------------------------|
A|------------------------------|
F|------------------------------|
C|--0000-0-000~---0-000~--------|
G|--0000-0-000~---0-000~--------|
C|--0000-0-000~---0-000~--------|x3
PM  .... . ...    . ...

(7:12-7:16) Guitar 1&2
D|----------------------------|
A|----------------------------|
F|----------------------------|
C|--0000-0-000---0-000--------|
G|--0000-0-000---0-000--------|
C|--0000-0-000---0-000--------|
PM  .... . ...   . ...

            
            
Suggest correction
Creating personal tab
Creating personal tab
You can edit any tab online and save it as your Personal.

You can edit, replace or remove any tab part or add personal notes – all changes will be seen only by you.

Personal tabs can be accessed anytime from any device, even offline.
Learn more »
Give kudos to tab author, rate the tab!
1 2 3 4 5
comments
print report bad tab
1 comment total.
0 reply
p.o.d~Tom~ 10 Apr 12, 2008 01:43 AM

Pretty awesome tab!!! i have been waiting for someone to put a tab up of this song!! one of their best. Cheers.

guest
You may want to rate the tab now too:
select rating
Wanna post a correction for this tab? Suggest correction