Oops, an error
Loading. Please wait.

Harlekin - What I Can Be Tab

37 views 1 this week
no commentswrite comment
1 2 3 4 5
please rate
add to favorites
launch autoscroll
font size
0
reset
how to read this tab
guitar tuner
Autoscroll
slow
fast
+/-
esc
set tempo
stop
Help us to improve Ultimate-Guitar.com Take our survey!
×
Author
Difficulty
novice
Song: What I Can Be
Artist: Harlekin
Album: Harlekin EP
Guitar: Adam Thurfield & Austin Miller

Guitar 1- Adam (Lead)
Guitar 2- Austin (Rhythm)

Intro Part 1 (Only lead guitar plays)
 
e|---------------------------|
B|---------------------------|
G|-------4------3------------|L        x4
D|2------4-4444-3-3333-5-----|E
A|2-2222-2-2222-1-1111-5-5555|A
E|0-0000---------------3-3333|D
    PM-|   PM-|   PM-|   PM-|

Intro Part 2 (Rhthym Joins)

e|-------------|
B|-------------|
G|-------------|L      x6
D|--2p0--------|A
A|-----1p0-----|E
E|00------3p0-0|D

e|------------------------------------------------------|R
B|------------------------------------------------------|H
G|------------------------------------------------------|Y  x2
D|2222-2-2-2222-2-2-2222-2-2-2222-2-2-55555555-4444-333-|T
A|2222-2-2-2222-2-2-2222-2-2-2222-2-2-55555555-4444-333-|H
E|0000-0-0-0000-0-0-0000-0-0-0000-0-0-33333333-2222-111-|M

Verse (Only lead)

e|----------------------------------|------------------------|
B|----------------------------------|------------------------|
G|-----------4---4----3---3---------|-------4-----3----------|
D|---2---2--4---4----3---3----5---5-|-2-----4-444-3-333-5-555|
A|--2---2--2---2----1---1----5---5--|-2-222-2-222-1-111-5-555|
E|-0---0--------------------3---3---|-0-000-------------3-333|
                                        PM|   PM|   PM|   PM|
                  
Chorus
e|-------------|
B|-------------|
G|-------------|L      x10
D|--2p0--------|A
A|-----1p0-----|E
E|00------3p0-0|D

e|-----------------------------------------------------------------------|R
B|-----------------------------------------------------------------------|H
G|-----------------------------------------------------------------------|Y
D|2222-2-2-2222-2-2-2222-2-2-2222-2-2-2222-2-2-2222-2-2-2222-2-2-2222-2-2|T
A|2222-2-2-2222-2-2-2222-2-2-2222-2-2-2222-2-2-2222-2-2-2222-2-2-2222-2-2|H
E|0000-0-0-0000-0-0-0000-0-0-0000-0-0-0000-0-0-0000-0-0-0000-0-0-0000-0-0|M

e|------------------|R
B|------------------|H
G|------------------|Y         Plays those last two riffs twice (rhythm)
D|-55555555-4444-333|T
A|-55555555-4444-333|H
E|-33333333-2222-111|M

Solo

e|-----------------------|---------------------|-------------------|
B|-----------------------|-----------------x2-O|-------------------|
G|-----------------------|---------------------|-------------------|
D|---------------------14|------------------14-|-121212121212-11-12|
A|---------14-15-14-15---|-------14-15-14-15--O|-------------------|
E|-2/12-12---------------|-12-12---------------|-------------------|

e|----------------------|----------------------------------------|
B|----------------x3---O|-------------------------------------17-|
G|----------------------|-------------------------------161916---|
D|-------------------14-|-12b-12b-12b)-11b-11b-11b-1414----------|
A|-------14-15-14-15---O|----------------------------------------|
E|-12-12----------------|----------------------------------------|

e|------------------------|---------------|
B|----------17----------17|15151515151515b|
G|----161916------161916--|---------------|
D|1414--------1414--------|---------------|
A|------------------------|---------------|
E|------------------------|---------------|

Rhythm in solo
e|------------------------------------------------------|R
B|------------------------------------------------------|H
G|------------------------------------------------------|Y  x2
D|2222-2-2-2222-2-2-2222-2-2-2222-2-2-55555555-4444-333-|T
A|2222-2-2-2222-2-2-2222-2-2-2222-2-2-55555555-4444-333-|H
E|0000-0-0-0000-0-0-0000-0-0-0000-0-0-33333333-2222-111-|M

Fill
e|-------|R
B|-------|H
G|111111~|Y
B|222222~|T
A|222222~|H
E|-------|M

Outro
e|----------------------|
B|----------------------|
G|----------------------|L
D|--------------------2-|E
A|--------------------2-|A
E|-0000000000000000---0-|D
   PM-------------|

e|---------------------|R
B|---------------------|H
G|---------------------|Y
D|-/           \------2|T
A|-|Pick Slide |------2|H
E|-\(Down & Up)/------0|M

Order
Intro Part 1
Intro Part 2
Verse
Chorus
Verse
Chorus
Solo
Fill
Verse
Outro

Legend
PM - Palm mute
/- Slide
b- Bend
p- Pull off
h- Hammer
Suggest correction
What's this?
You can suggest a correction to this tab. Community and Mods will review your correction and vote to approve or reject it.
comments
We did not receive enough feedback on this tab! Please rate:
print report bad tab
1 2 3 4 5
guest
You may want to rate the tab now too:
select rating
Please do not post tabs as comments. Select "correction" instead!