Oops, an error
Loading. Please wait.

Hater Coil - Blood Bank Of Destruction Tab

122 views 1 this week
no commentswrite comment
1 2 3 4 5
please rate
add to favorites
launch autoscroll
font size
0
reset
how to read this tab
guitar tuner
Autoscroll
slow
fast
+/-
esc
set tempo
stop
Help us to improve Ultimate-Guitar.com Take our survey!
×
Author
Difficulty
Tuning
intermediate
C F A# D# G C
     sup, uhh this is my first tab, its one of my songs i made up, i know its 
short but if you like it then please email me. haydenater@yahoo.com
                       

             INTRO (X4)

  |-------------------------------|----------------------------------|
  |-------------------------------|----------------------------------|
  |-------------------------------|----------------------------------|
  |---5---7---5---3---5---3---2~~-|---5---3---5---7---5---7---9~~----|
  |---5---7---5---3---5---3---2~~-|---5---3---5---7---5---7---9~~----|
  |---3---5---3---1---3---1---0~~-|---3---1---3---5---3---5---7~~----|


            VERSE (X8)


  |--------------------------|--------------------------------------------|
  |--------------------------|--------------------------------------------|
  |--------------------------|--------------------------------------------|
  |----------5--5\3-3-2------|----------5--5-3-5--7---------5--5-3-5--7-9-|
  |--------5----5\3-3-2------|--------5----5-3-5--5-------5----5-3-5--5-7-|
  |---3/5-------3\1-1-0--(X2)|---3/5-------3\1/3-----3/5-------3/1\3------|



           SOLO 1
        p p    p p    p p    p p    p p    p p    p p    p p
  |---141211-141211-141211-141211-141211-141211-141211-141211|
  |----------------------------------------------------------|
  |----------------------------------------------------------|
  |----------------------------------------------------------|
  |----------------------------------------------------------|
  |----------------------------------------------------------|

      p p    p p    p p    p p    p p    p p    p p    p p
  |-151211-151211-151211-151211-151211-151211-151211-151211--|
  |----------------------------------------------------------|
  |----------------------------------------------------------|
  |----------------------------------------------------------|
  |----------------------------------------------------------|
  |----------------------------------------------------------|


  |---1415141714151419141514191415141714151419--14151415141514151415141514\|
  |------------------------------------------------------------------------|
  |------------------------------------------------------------------------|
  |------------------------------------------------------------------------|
  |------------------------------------------------------------------------|
  |------------------------------------------------------------------------|
                   pp  pp  pp  pp  pp  pp  pp  pp  pp  pp      SOLO 2
  |-21^--21--12\--865-865-754-754-643-643-532-532-421-421-0~|-/8-7-10-7-/12|
  |---------------------------------------------------------|--------------|
  |---------------------------------------------------------|--------------|
  |---------------------------------------------------------|--------------|
  |---------------------------------------------------------|--------------|
  |---------------------------------------------------------|--------------|
  |---------------------------------------------------------|--------------|
                                 ph    hh                       
  |-11-14-11--/15-17-19-20-21~--757-8-789-10-9/10-10-12--12~|
  |------------------------------------------------------13~|
  |---------------------------------------------------------|
  |---------------------------------------------------------|
  |---------------------------------------------------------|
  |---------------------------------------------------------|


  


[  |----hh--hh--hh--hh--hh--hh--hh--hh--hh--hh--hh--hh--hh--hh--hh--hh-|
[  |---569-569-569-569-569-569-569-569-457-457-457-457-457-457-457-457-|
[  |-------------------------------------------------------------------|
[  |-------------------------------------------------------------------|
[  |-------------------------------------------------------------------|
[  |-------------------------------------------------------------------|
[
[
[ |--hh--hh--hh--hh--hh--hh--hh--hh--hh---hh---hh---hh---hh---hh---hh---hh-|
[ |-568-568-568-568-568-568-568-568-7810-7810-7810-7810-7810-7810-7810-7810|
[ |------------------------------------------------------------------------|
[ |------------------------------------------------------------------------|
[ |------------------------------------------------------------------------|
[ |------------------------------------------------------------------------|
[(x2)  

  |-----------------------------------------p-131211-11~-11-10-7-5-3-1/3-0~|
  |-/12^12^12^12^12^12^12^12^12^12^12^12r-1211-------12~-12-11-7-7-5-3/5-0~|
  |------------------------------------------------------------------------|
  |------------------------------------------------------------------------|
  |------------------------------------------------------------------------|
  |------------------------------------------------------------------------|


  |--3--5~~~/9\3/12\0-|
  |--x--x----x-x-x--x-|
  |--1--3~~~/7\1/10\0-|
  |-------------------|
  |-------------------|
  |-------------------|


  play intro, then verse again


          bridge

 d|------------------------|
 a|--2020-3030-4040-5050---|
 e|--2222-2222-2222-2222///|



          OUTRO

   *   *   *   *   *   *   *   *   *   *   *   *   *   *   *   *   *   *
 |-------------------------------------------------------------------------|
 |-------------------------------------------------------------------------|
 |-------------------------------------------------------------------------|
 |---7--77---7--77---7---5--55---5--55---5---3--33---3--33---3---1--11---1-|
 |--9-------9-------9---7-------7-------7---5-------5-------5---3-------3--|
 |-7---7---7---7---7---5---5---5---5---5---3---3---3---3---3---1---1---1---|

  *   *     *   *   *   *   *   *   *   *   *   *   *   *   *   *   *   *  
 |--------|----------------------------------------------------------------|
 |--------|----------------------------------------------------------------|
 |--------|----------------------------------------------------------------|
 |-11---1-|---7--77---7--77---7---5--55---5--55---5---3--33---3--33---3---1|
 |-----3--|--9-------9-------9---7-------7-------7---5-------5-------5---3-|
 |1---1---|-7---7---7---7---7---5---5---5---5---5---3---3---3---3---3---1--|

   *   *  *   *    
 |------------------|
 |------------------|
 |------------------|
 |--11--1--11--110~~|
 |------------------|
 |-1---1--1---1-----|






~=vibrato
^=bend
p=pull-off
h=hammer-on
r=release bend
*=palm mute
Suggest correction
What's this?
You can suggest a correction to this tab. Community and Mods will review your correction and vote to approve or reject it.
comments
We did not receive enough feedback on this tab! Please rate:
print report bad tab
1 2 3 4 5
guest
You may want to rate the tab now too:
select rating
Please do not post tabs as comments. Select "correction" instead!