Oops, an error
Loading. Please wait.

Haywyre - Stuck In The Mud Tab

167 views 1 this week
no commentswrite comment
1 2 3 4 5
3 more votes to show rating
add to favorites
launch autoscroll
font size
0
reset
how to read this tab
guitar tuner
Autoscroll
slow
fast
+/-
esc
set tempo
stop
Help us to improve Ultimate-Guitar.com Take our survey!
×
Author
Difficulty
advanced
Stuck In The Mud
By: Haywyre
Music By: G. Perry (lead guitar)

INTRO (slightly distorted)

                                                      ~~~~~~~
e--------------|---------------|--------------|-------0------|
b-/3-3---2-----|---4-4-5-4-----|-/3-3---2-----|-------3------|
g-/4---4---2---|---4-4-4-4-----|-/4---4---2---|-------4------|
d------------2-|---4-4-4-4-----|------------2-|-------0------|
a--------------|-0-2-2-2-2---\-|--------------|-x------------|
E--------------|-----------x-\-|--------------|-3b3.5--------|

Verse/Pre-Chorus (heavy distortion)
             ~
e--------------|---------------|
b-/3-3---2-----|---4-4-5-4-----|
g-/4---4-2-2---|---4-4-4-4-----|
d------------2-|---4-4-4-4-----|
a------------0-|-x-2-2-2-2---\-|
E--------------|-x---------x-\-|

             ~
e--------------|---------------|---------------|
b-/3-3---2-----|-----2--2-3=p2-|-3-3-3-3-3-3---|
g-/4---4-2-2---|-----2--2-2--2-|-2-2-2-2-2-2---|
d--------2---2-|-x-x-2--2-0--2-|-2-2-2-2-2-2---|
a--------------|-x-x-0--0----0-|---------------|
E--------------|---------------|---------------|

             ~
e--------------|---------------|
b-/3-3---2-----|---4-4-5-4-----|
g-/4---4-2-2---|---4-4-4-4-----|
d------------2-|---4-4-4-4-----|
a------------0-|-x-2-2-2-2---\-|
E--------------|-x---------x-\-|

             ~
e--------------|---------------|---------------|
b-/3-3---2-----|---------------|/7--8-8-7-8\---|
g-/4---4---2---|---4--4-2------|/7--7-7-7-7\---|
d------------2-|---4--4-2-2----|/7--7-7-7-7\---|
a------------0-|---2--2-0-2----|---------------|
E--------------|-0--------0----|---------------|

Chorus (heavy distortion)
                           ~~~~
e--------------|---------------|
b-------9-9-10-|9--7-8-8-------|
g-------9-9-9--|9--7-7-7-7-2---|
d-7--7--9-9-9--|9--7-9-9-7-2---|
a-4--5--7-7-7--|7--0-0-0-5-----|
E--------------|---------------|

                    ~ ~   ~
e--------------|---------------|
b-------9-9-10-|9---8-7---7\---|
g-------9-9-9--|9---9-7---7\---|
d-7--7--9-9-9--|9-------9------|
a-4--5--7-7-7--|7-----------/\-|
E--------------|------------/\-|

                           VSlw
e--------------|---------------|
b-------9-9-10-|9--7-8-8---3\--|
g-------9-9-9--|9--7-7-7---2\--|
d-7--7--9-9-9--|9--7-9-9-7-0---|
a-4--5--7-7-7--|7--0-0-0-7-----|
E--------------|---------5-----|

Bridge to verse
e--------------|--------3-3-------------|
b-------9-9-10-|9-------3-3-------------|
g-------9-9-9--|9-------0-0-----2-------|
d-7--7--9-9-9--|9-------0-0-----2-------|
a-4--5--7-7-7--|7-------x-x-3b4-0-3-2-0-|
E--------------|--0-3-4-3-3-------------|
                  . . .

Verse/Pre-Chorus (heavy distortion)
             ~
e--------------|---------------|
b-/3-3---2-----|---4-4-5-4-----|
g-/4---4-2-2---|---4-4-4-4-----|
d------------2-|---4-4-4-4-----|
a------------0-|-x-2-2-2-2---\-|
E--------------|-x---------x-\-|

             ~
e--------------|---------------|---------------|
b-/3-3---2-----|-----2--2-3=p2-|-3-3-3-3-3-3---|
g-/4---4-2-2---|-----2--2-2--2-|-2-2-2-2-2-2---|
d--------2---2-|-x-x-2--2-0--2-|-2-2-2-2-2-2---|
a--------------|-x-x-0--0----0-|---------------|
E--------------|---------------|---------------|

             ~
e--------------|---------------|
b-/3-3---2-----|---4-4-5-4-----|
g-/4---4-2-2---|---4-4-4-4-----|
d------------2-|---4-4-4-4-----|
a------------0-|-x-2-2-2-2---\-|
E--------------|-x---------x-\-|

             ~
e--------------|---------------|
b-/3-3---2-----|/7--8-8-7-8\---|
g-/4---4---2---|/7--7-7-7-7\---|
d------------2-|/7--7-7-7-7\---|
a------------0-|---------------|
E--------------|---------------|

Chorus (heavy distortion)
                           ~~~~
e--------------|---------------|
b-------9-9-10-|9--7-8-8-------|
g-------9-9-9--|9--7-7-7-7-2---|
d-7--7--9-9-9--|9--7-9-9-7-2---|
a-4--5--7-7-7--|7--0-0-0-5-----|
E--------------|---------------|

                    ~ ~   ~
e--------------|---------------|
b-------9-9-10-|9---8-7---7\---|
g-------9-9-9--|9-7-9-7---7\---|
d-7--7--9-9-9--|9-------9------|
a-4--5--7-7-7--|7-----------/\-|
E--------------|------------/\-|

                           VSlw
e--------------|---------------|
b-------9-9-10-|9--7-8-8---3\--|
g-------9-9-9--|9--7-7-7---2\--|
d-7--7--9-9-9--|9--7-9-9-7-0---|
a-4--5--7-7-7--|7--0-0-0-7-----|
E--------------|---------5-----|

Bridge to solo
e--------------|--------3-3-------------|
b-------9-9-10-|9-------3-3-------------|
g-------9-9-9--|9-------0-0-----2-------|
d-7--7--9-9-9--|9-------0-0-----2-------|
a-4--5--7-7-7--|7-------x-x-3b4-0-3-2-0-|
E--------------|--0-3-4-3-3-------------|

Solo
  ~~~~~~~~~~~~~~~~~~~~~~~~~                               ~~
e------------------------------------------------------------|
b-------------0h8---------------------------------10---------|
g-9-------------9---------------9--7----------9b11==pbr11-9--|
d-----------------------------------9-7-----7----------------|
a---------------------------/\----------9-7------------------|
E---------------------------/\-------------------------------|

   ~    ~                               ~                                ~
---15---12-----------------------------------------------------------------|
-x---------15p13----13b13.5------------------------------------------------|
-----------------14---------14-------------------------------------7-------|
-------------------------------14p12----12--------------------/7h9---9p7h9-|
-------------------------------------14------------2-------2~--------------|
-------------------------------------------0-2-3-4---3b3.5-----------------|
                                           . . . .
                           ~                ~
-----------------------------------------------------------------------|
---------------7-8-8-8-7-8p7------------------------------/15-17-20b22-|
----7-7p5------7-7-7-7-7-7(7)-/\------2p0---4--------------------------|
-/7-------5=h7----------------/\--x-x-----4---x-x-2p0-0----------------|
----------------------------------x-x---------x-x-------2--------------|
--------------------------------------------------------0--------------|

              ~~~
-----------------------------|
-pb22-pr20-20b22-------------|
-----------------------------|
--------------------x<~~~~~~-|
--------------------x<~~~~~~-|
-----------------------------|

OUTRO

e--------------|---------------|
b-/3-3---2-----|---4-4-5-4-----|
g-/4---4-2-2---|---4-4-4-4-----|
d------------2-|---4-4-4-4-----|
a------------0-|-x-2-2-2-2---\-|
E--------------|-x---------x-\-|

             ~
e--------------|---------------|---------------|
b-/3-3---2-----|-----2--2-3=p2-|-3-3-3-3-3-3---|
g-/4---4-2-2---|-----2--2-2--2-|-2-2-2-2-2-2---|
d--------2---2-|-x-x-2--2-0--2-|-2-2-2-2-2-2---|
a--------------|-x-x-0--0----0-|---------------|
E--------------|---------------|---------------|

             ~
e--------------|---------------|
b-/3-3---2-----|---4-4-5-4-----|
g-/4---4-2-2---|---4-4-4-4-----|
d------------2-|---4-4-4-4-----|
a------------0-|-x-2-2-2-2---\-|
E--------------|-x---------x-\-|

             ~
e--------------|------------------|
b-/3-3---2-----|------------------|
g-/4---4---2---|-2-2-4-2----------|
d------------2-|-2-2-4-2-------7\-|
a------------0-|-0-0-2-0-------7\-|
E--------------|---------3b3.5-5\-|
Suggest correction
Give kudos to tab author, rate the tab!
1 2 3 4 5
comments
print report bad tab
guest
You may want to rate the tab now too:
select rating
Wanna post a correction for this tab? Suggest correction