Oops, an error
Loading. Please wait.

Headlong - Homeless Tab

94 views 1 this week
no commentswrite comment
1 2 3 4 5
please rate
add to favorites
launch autoscroll
font size
0
reset
how to read this tab
guitar tuner
Tab Pro tools
  • play this tab
  • loop segment
  • change instrument
  • show fretboard
  • metronome
×
Best way to learn
"Headlong - Homeless"
Autoscroll
slow
fast
+/-
esc
set tempo
stop
Difficulty
intermediate
Song: Homeless
Band: Headlong
Year: 2006
Tuning: Standard
Band Website: www.rockheadlong.tk
Tabber: Graemel
Tabber Email: Graeme_Lennie@Hotmail.com

*Tab is only used for learning the song and playing it, or privite study. This is*
*the bands song. Dont take credit for it. Headlong is still indie----------------*

Intro

Guitar 1

--------------------------------------------------------------------------------|
--------------------------------------------------------------------------------|
--------------------------------------------------------------------------------|
--------------------------------------------------------------7---5-------------|
-0-0-3-3-5-7-5-3---------3-3-5-7-5-3----3-3-3-3-5-7-5-3-------------------------|
---------------------1--1-------------------------------------------------------|  x3

g2 comes in after g1 does first riff once

Guitar 2

-------------11111111-----------------------------------------------------------|
-00000000----33333333---33333333------------------------------------------------|
-22222222---------------55555555-----55555555-----------------------------------|
-------------------------------------77777777-----------------------------------|
--------------------------------------------------------------------------------|
--------------------------------------------------------------------------------| x2

Verse

Both Guitars

---------1111---3333------------------------------------------------------------|pm
--0000---3333---5555---0000-----------------------------------------------------|
--2222-----------------2222-----------------------------------------------------|
--------------------------------------------------------------------------------|x2
--------------------------------------------------------------------------------|
--------------------------------------------------------------------------------|

pre coarse

guitar 1
--------------------------------------------------------------------------------|
--------------------------------------------------------------------------------|
--------------------------------------------------------------------------------|
--------------------------------------------------------------7---5-------------|
-0-0-3-3-5-7-5-3---------3-3-5-7-5-3----3-3-3-3-5-7-5-3-------------------------|
---------------------1--1-------------------------------------------------------| x2

Guitar 2
-
------------11111111------------------------------------------------------------|
-00000000---33333333---33333333-------------------------------------------------|
-22222222--------------55555555---55555555--------------------------------------|
----------------------------------77777777--------------------------------------|
--------------------------------------------------------------------------------|
--------------------------------------------------------------------------------|x2

Coarse

Both Guitars

------------------------------------------------------------------------------3-|
--8-8-8-8-8-8-8-8----33333333---8-8-8-8-8-8-8-8--33333333--8-8-8-8-8-8-8-8----5-|
--1010101010101010---55555555---1010101010101010-55555555--1010101010101010-----|
--------------------------------------------------------------------------------|
--------------------------------------------------------------------------------|
--------------------------------------------------------------------------------|

Pre Verse

Guitar 1

--------------------------------------------------------------------------------|
--------------------------------------------------------------------------------|
--------------------------------------------------------------------------------|
--------------------------------------------------------------7---5-------------|
-0-0-3-3-5-7-5-3---------3-3-5-7-5-3----3-3-3-3-5-7-5-3-------------------------|
---------------------1--1-------------------------------------------------------| x2

Guitar 2

-------------11111111-----------------------------------------------------------|
-00000000----33333333---33333333------------------------------------------------|
-22222222---------------55555555--55555555--------------------------------------|
----------------------------------77777777--------------------------------------|
--------------------------------------------------------------------------------|
--------------------------------------------------------------------------------|x2

Verse

Both Guitars

---------1111---3333------------------------------------------------------------|pm
--0000---3333---5555---0000-----------------------------------------------------|
--2222-----------------2222-----------------------------------------------------|
--------------------------------------------------------------------------------|x2
--------------------------------------------------------------------------------|
--------------------------------------------------------------------------------|

pre coarse

guitar 1
--------------------------------------------------------------------------------|
--------------------------------------------------------------------------------|
--------------------------------------------------------------------------------|
--------------------------------------------------------------7---5-------------|
-0-0-3-3-5-7-5-3---------3-3-5-7-5-3----3-3-3-3-5-7-5-3-------------------------|
---------------------1--1-------------------------------------------------------| x2

Guitar 2

-------------11111111-----------------------------------------------------------|
-00000000----33333333----33333333-----------------------------------------------|
-22222222----------------55555555--55555555-------------------------------------|
-----------------------------------77777777-------------------------------------|
--------------------------------------------------------------------------------|
--------------------------------------------------------------------------------|x2

Coarse

Both Guitars

-----------------------------------------------------------------------------3--|
--8-8-8-8-8-8-8-8----33333333---8-8-8-8-8-8-8-8---33333333--8-8-8-8-8-8-8-8--5--|
--1010101010101010---55555555---1010101010101010--55555555--1010101010101010----|
--------------------------------------------------------------------------------|
--------------------------------------------------------------------------------|
--------------------------------------------------------------------------------|

Guitar 2 *PICKSLIDE*

Bridge

Both Guitars

Both Guitars

---------1111---3333-----------------------------------------------------------|
--0000---3333---5555---0000----------------------------------------------------|
--2222-----------------2222----------------------------------------------------|
-------------------------------------------------------------------------------|
-------------------------------------------------------------------------------|
-------------------------------------------------------------------------------|x2

Guitar 2 *PICKSLIDE*

Coarse

Both Guitars

--------------------------------------------------------------3----------------|
--8-8-8-8-8-8-8-8----33333333---8-8-8-8-8-8-8-8---33333333--8-8-8-8-8-8-8-8----|
--1010101010101010---55555555---1010101010101010--55555555--1010101010101010---|
-------------------------------------------------------------------------------|
-------------------------------------------------------------------------------|
-------------------------------------------------------------------------------|

end on

---------|
--0------|
--2------|
---------|
---------|
---------|

This is my bands song you cant download it but go to our site at www.rockheadlong.tk. Thanx

-Graeme
comments
We did not receive enough feedback on this tab! Please rate:
print report bad tab
1 2 3 4 5
I want to post or [tab]
guest
You may want to rate the tab now too:
select rating
Please do not post tabs as comments. Select "correction" instead!