Oops, an error
Loading. Please wait.

Heartdown - Theres Never Enough Room On The Dancefloor Bass Tab

57 views 1 this week
no commentswrite comment
1 2 3 4 5
please rate
add to favorites
launch autoscroll
font size
0
reset
guitar tuner
Autoscroll
slow
fast
+/-
esc
set tempo
stop
Help us to improve Ultimate-Guitar.com Take our survey!
×
Contributor
Difficulty
intermediate
There’s Never Enough Room On The Dancefloor

Artist: Heartdown

Bass tabs


 ~ - Let ring
Pm – Palm Mute
H – hammer on
P – pull off


Inro
G-|-------------------------------------------------------------------| 
D-|-------------------------------------------------------------------| 
A-|----------------2-22-2222—44-444-----------------------------------|
E-|-00~---00-000-----------------------4—44—5—7-----------------------|


G-|-------------------------------------------------------------------| 
D-|-------------------------------------------------------------------| X3
A-|-------------222-2222—44-444---------------------------------------|
E-|---00-000------------------------4—44—5—7--------------------------|




G-|-------------------------------------------------------------------| 
D-|-------------------------------------------------------------------| 
A-|-------------------------------------------------------------------|  
E-|--00~--00~---(pick slide)-------------------------------------------|


Verse 1
G-|-------------------------------------------------------------------| 
D-|-------------------------------------------------------------------| X2
A-|------------22222222—44444444—0000000-2----------------------------|
E-|--00000000---------------------------------------------------------|




 Pre chorus
G-|-------------------------------------------------------------------| 
D-|-------------------------------------------------------------------| 
A-|--------------------------------------444--22222222--00000000------|  
E-|--0-0-0-0—-2-2-2-2—-4-4-4-4—-5-5-5-5-------------------------------|
  --------------- Pm-------------------


  Chorus
G-|------------------------------------------------------------------| 
D-|------------------------------------------------------------------| 
A-|------------------------------------------------444--2—4----------| 
E-|--00000000--22222222--44444444--5555------------------------------|


G-|------------------------------------------------------------------| 
D-|------------------------------------------------------------------| 
A-|------------------------------------------------444--2—0----------| 
E-|--00000000--22222222--44444444--5555------------------------------|



Bridge
G-|-------------------------------------------------------------------| 
D-|-------------------------------------------------------------------| X4
A-|-------------------222-2222—44-444---------------------------------|
E-|---00-000---------------------------4—44—5—7-----------------------|




G-|-------------------------------------------------------------------| 
D-|-------------------------------------------------------------------| 
A-|-------------------------------------------------------------------|  
E-|--00~--00~---(pick slide)------------------------------------------|


Verse 2
G-|-------------------------------------------------------------------| 
D-|-------------------------------------------------------------------| X2
A-|------------22222222—44444444—0000000-2----------------------------|
E-|--00000000---------------------------------------------------------|


 Pre chorus
G-|-------------------------------------------------------------------| 
D-|-------------------------------------------------------------------| 
A-|--------------------------------------444--22222222--00000000------|  
E-|--0-0-0-0—-2-2-2-2—-4-4-4-4—-5-5-5-5-------------------------------|
  ------------------- Pm-----------------

  Chorus
G-|------------------------------------------------------------------| 
D-|------------------------------------------------------------------| 
A-|------------------------------------------------444--2—4----------| 
E-|--00000000--22222222--44444444--5555------------------------------|


G-|------------------------------------------------------------------| 
D-|------------------------------------------------------------------| 
A-|------------------------------------------------444--2—0----------| 
E-|--00000000--22222222--44444444--5555------------------------------|


Bridge
G-|-------------------------------------------------------------------| 
D-|-------------------------------------------------------------------| X2
A-|-------------------222-2222—44-444---------------------------------|
E-|---00-000---------------------------4—44—5—7-----------------------|

  Chorus
G-|------------------------------------------------------------------| 
D-|------------------------------------------------------------------| 
A-|------------------------------------------------444--2—4----------| 
E-|--00000000--22222222--44444444--5555------------------------------|


G-|------------------------------------------------------------------| 
D-|------------------------------------------------------------------| 
A-|------------------------------------------------444--2—0----------| 
E-|--00000000--22222222--44444444--5555------------------------------|


Outro
G-|-------------------------------------------------------------------| 
D-|-------------------------------------------------------------------| X2
A-|-------------------222-2222—44-444---------------------------------|
E-|---00-000---------------------------4—44—5—6-----------------------|

G-|-------------------------------------------------------------------| 
D-|-------------------------------------------------------------------| 
A-|--0----------------------------------------------------------------|  
E-|-----0~------------------------------------------------------------|

G-|-------------------------------------------------------------------| 
D-|---99-7p6h7----44-444--6-66-666------------------------------------| 
A-|------------7------------------------------------------------------|  
E-|-------------------------------------------------------------------|

G-|--------------------------9-99--8-888------------------------------| 
D-|---99-7p6h7------6-6-666-------------------------------------------| 
A-|------------7------------------------------------------------------|  
E-|-------------------------------------------------------------------|


G-|-------------------------------------------------------------------| 
D-|---99-7p6h7----66-666--4-44-4444-----------------------------------| 
A-|------------7------------------------------------------------------|  
E-|-------------------------------------------------------------------|


G-|-------------------------------------------------------------------| 
D-|---99-7p6h7--------------------------------------------------------| 
A-|------------7-77-+7777-99-999-7~-----------------------------------|  
E-|-------------------------------------------------------------------|


www.myspace.com./x3heartdown
Suggest correction new What's this?
You can suggest a correction to this tab. Community and Mods will review your correction and vote to approve or reject it.
comments
We did not receive enough feedback on this tab! Please rate:
print report bad tab
1 2 3 4 5
guest
You may want to rate the tab now too:
select rating
Please do not post tabs as comments. Select "correction" instead!