Oops, an error
Loading. Please wait.

Heartstop - Dont Wake Me Up Bass Tab

175 views 1 this week
no commentswrite comment
1 2 3 4 5
please rate
add to favorites
launch autoscroll
font size
0
reset
guitar tuner
Autoscroll
slow
fast
+/-
esc
set tempo
stop
Help us to improve Ultimate-Guitar.com Take our survey!
×
Author
Tuning
D# G# C# F# A# D#
-------------------------------------------------------------------------------
	Don't Wake Me Up - Heartstop	     
-------------------------------------------------------------------------------

Tabbed By: SK8nBASS

Tuning: Half-Step Down

  Verse
Gb|------------------------------------------------|
Db|------------------------------------------------|
Ab|-------------0--0--0--0--4--4--4--4--2--2--2--2-|
Eb|-0--0--0--0-------------------------------------|x3
  Pre-Chorus
Gb|-------------------------------------------|
Db|-------------------------------------------|
Ab|-0--0--0~--------------0--0--0~---2--2--2~-|
Eb|------------0--0--0~-----------------------|
  Chorus
Gb|---------------------------------------------------------------|
Db|---------------------------------------------------------------|
Ab|----------------000000000000000444444444444442-000000000000022-|
Eb|-000000000000000-----------------------------------------------|x2
  Post-Chorus
Gb|------------------------|
Db|------------------------|
Ab|-----------2~-----------|
Eb|-0--0--0~------0--0--0~-|
  Verse
Gb|---------------------------------------------------------------|
Db|---------------------------------------------------------------|
Ab|-----------------000000000000004444444444444442222222222222222-|
Eb|-0000000000000000----------------------------------------------|x2
  Chorus
Gb|---------------------------------------------------------------|
Db|---------------------------------------------------------------|
Ab|----------------000000000000000444444444444442-000000000000022-|
Eb|-000000000000000-----------------------------------------------|x2
  Bridge
Gb|-----------------------------------|
Db|-----------------------------------|
Ab|-------2-0~--------------2-0~------|
Eb|-0~----------------0~--------------|

Gb|--------------------------------------------------------------|
Db|--------------------------------------------------------------|
Ab|----------------2000000000002-----------------200000000000000-|
Eb|-000000000000000--------------0000000000000000----------------|

Gb|--------------------------------------------------------------|
Db|---------------------------------------------2222222222222222-|
Ab|----------------2000000000002-000000000000000-----------------|
Eb|-000000000000000----------------------------------------------|
  Chorus
Gb|---------------------------------------------------------------|
Db|---------------------------------------------------------------|
Ab|----------------000000000000000444444444444442-000000000000022-|
Eb|-000000000000000-----------------------------------------------|x2
  Outro
Gb|-----------------------------------|
Db|-----------------------------------|
Ab|-------2-0~--------------2-0~------|
Eb|-0~----------------0~--------------|


| /  slide up
| \  slide down
| h  hammer-on
| p  pull-off
| ~  vibrato
| +  harmonic
| x  Mute note
===============================================================================

Suggest correction
What's this?
You can suggest a correction to this tab. Community and Mods will review your correction and vote to approve or reject it.
comments
We did not receive enough feedback on this tab! Please rate:
print report bad tab
1 2 3 4 5
guest
You may want to rate the tab now too:
select rating
Please do not post tabs as comments. Select "correction" instead!