Oops, an error
Loading. Please wait.

Heather Janssen - Checkers Tab

5,635 views 12 this week
1 commentread comment
1 2 3 4 5
x 4
add to favorites
launch autoscroll
font size
0
reset
how to read this tab
guitar tuner
Autoscroll
slow
fast
+/-
esc
set tempo
stop
Help us to improve Ultimate-Guitar.com Take our survey!
×
Author
Difficulty
Capo
intermediate
3rd fret
STANDARD TUNING

CAPO 3

INTRO:

E||------------|     E||-----------|
B||------------|     B||-----------|
D||---0-0h2-0--| 2x  D||--0-0h2-0--| 2x
G||-0---------0|     G||-0--------0|
A||------------|     A||3----------|
E||3-----------|     E||-----------|

VERSES 1:


E||------------|     E||-----------|    E||------------|
B||------------|     B||-----------|    B||------------|
D||---0-0h2-0--| 2x  D||--0-0h2-0--| 2x D||---0-0h2-0--|
G||-0---------0|     G||-0--------0|    G||--0--------0|
A||------------|     A||3----------|    A||------------|
E||3-----------|     E||-----------|    E||0-----------|

E||-----------|  E||-----------|
B||-----------|  B||-----------|
D||--0-0h2-0--|  D||--0-0h2-0--| 2x
G||-0--------0|  G||-0--------0|
A||0----------|  A||3----------|
E||-----------|  E||-----------|

I shouldn't care but my heart's just so confused,
I'm playing checkers with you and it's nothing new
You make an unexpected move and I just have to rethink.

INSTRUMENTAL BREAK(Play the INTRO)

VERSE 2:
E||------------|     E||-----------|    E||------------|
B||------------|     B||-----------|    B||------------|
D||---0-0h2-0--| 2x  D||--0-0h2-0--| 2x D||---0-0h2-0--|
G||-0---------0|     G||-0--------0|    G||--0--------0|
A||------------|     A||3----------|    A||------------|
E||3-----------|     E||-----------|    E||0-----------|

E||-----------|  E||-----------|
B||-----------|  B||-----------|
D||--0-0h2-0--|  D||--0-0h2-0--| 2x
G||-0--------0|  G||-0--------0|
A||0----------|  A||3----------|
E||-----------|  E||-----------|

Thought you were after me and what's in my heart,
You were for a moment, but that sweet second fell apart,
You've moved on and somehow I just don't get that.

CHORUS:

E||------------|     E||-----------|    E||------------|
B||------------|     B||-----------|    B||------------|
D||---0-0h2-0--| 2x  D||--0-0h2-0--| 2x D||---0-0h2-0--|
G||-0---------0|     G||-0--------0|    G||--0--------0|
A||------------|     A||3----------|    A||------------|
E||3-----------|     E||-----------|    E||0-----------|

E||-----------|  E||-----------|
B||-----------|  B||-----------|
D||--0-0h2-0--|  D||--0-0h2-0--| 2x
G||-0--------0|  G||-0--------0|
A||0----------|  A||3----------|
E||-----------|  E||-----------|

You make you make, me so uptight.
You make you make me go in every direction.
You are you are so perfect in your selfishness.

VERSE 3: ******NOTE!: the next to verses are a bit different

E||------------|     E||-----------|    E||------------|
B||------------|     B||-----------|    B||------------|
D||---0-0h2-0--| 2x  D||--0-0h2-0--| 2x D||---0-0h2-0--|
G||-0---------0|     G||-0--------0|    G||--0--------0|
A||------------|     A||3----------|    A||------------|
E||3-----------|     E||-----------|    E||0-----------|

E||-----------|  E||------------|
B||-----------|  B||------------|
D||--0-0h2-0--|  D||---0-0h2-0--|
G||-0--------0|  G||--0--------0|
A||0----------|  A||------------|
E||-----------|  E||0-----------|


E||--------|     E||-------|
B||--------|     B||-------|
D||---0----|     D||--0h2--|
G||-0---0--|     G||-0-----|
A||3-------|     A||-------|
E||--------|     E||2------|

Something's there but maybe were both too afraid
I know you have felt it so then why did you leave me
So alike why aren't we together, like what's so wrong with forever, how come apart is 
better? I guess that points never been raised.

VERSE 4:

E||------------|     E||-----------|    E||------------|
B||------------|     B||-----------|    B||------------|
D||---0-0h2-0--| 2x  D||--0-0h2-0--| 2x D||---0-0h2-0--|
G||-0---------0|     G||-0--------0|    G||--0--------0|
A||------------|     A||3----------|    A||------------|
E||3-----------|     E||-----------|    E||0-----------|

E||-----------|  E||------------|
B||-----------|  B||------------|
D||--0-0h2-0--|  D||---0-0h2-0--|
G||-0--------0|  G||--0--------0|
A||0----------|  A||------------|
E||-----------|  E||0-----------|


E||--------|     E||-------|
B||--------|     B||-------|
D||---0----|     D||--0h2--|
G||-0---0--|     G||-0-----|
A||3-------|     A||-------|
E||--------|     E||2------|

What do you see in the girl that should be me?
Is she deeper or is this a momentary thing?
I never know with you and I just don't know what to and, maybe I should hold on or, it's 
that I just let on go

CHORUS:

E||------------|     E||-----------|    E||------------|
B||------------|     B||-----------|    B||------------|
D||---0-0h2-0--| 2x  D||--0-0h2-0--| 2x D||---0-0h2-0--|
G||-0---------0|     G||-0--------0|    G||--0--------0|
A||------------|     A||3----------|    A||------------|
E||3-----------|     E||-----------|    E||0-----------|

E||-----------|  E||-----------|
B||-----------|  B||-----------|
D||--0-0h2-0--|  D||--0-0h2-0--| 2x
G||-0--------0|  G||-0--------0|
A||0----------|  A||3----------|
E||-----------|  E||-----------|

You make you make, me so uptight.
You make you make me go in every direction.
You are you are so perfect in your selfishness.

INSTRUMENTAL BREAK (PLAY INTRO)

BRIDGE:

E||-3--3---|     E||-3--3---|    E||-3--3---|   E||-3--3---|
B||-3--3---|     B||-3--3---|    B||-3--3---|   B||-3--3---|
D||-0--0---|     D||-2--2---|    D||-0--0---|   D||-2--2---|
G||--------|     G||--------|    G||--------|   G||--------|
A||3---3---|     A||--------|    A||--------|   A||--------|
E||--------|     E||2-------|    E||0-------|   E||2-------|

And Im thinkin, that you should consider, mmmmm

E||--3--3---|     E||--3--3---|    E||--3--3---|   E||--3--3---|
B||--3--3---|     B||--3--3---|    B||--3--3---|   B||--3--3---|
D||--0--0---|     D||--2--2---|    D||--0--0---|   D||--2--2---|
G||---------|     G||---------|    G||---------|   G||---------|
A||3----3---|     A||---------|    A||---------|   A||---------|
E||---------|     E||2----2---|    E||0----0---|   E||2----2---|

What I'm thinkin, what I'm feelin, it aint over till the truth comes out in

E||--0--0---|     E||--0--0---|    E||--0--0---|   E||--3--3---|
B||--1--1---|     B||--1--1---|    B||--1--1---|   B||--3--3---|
D||--2--2---|     D||--2--2---|    D||--0--0---|   D||--2--2---|
G||---------|     G||---------|    G||---------|   G||---------|
A||0----0---|     A||3----3---|    A||3----3---|   A||---------|
E||---------|     E||---------|    E||---------|   E||2----2---|

words don't make it okay,
Don't make it any easier
And Im tryin to

E||--0--0---|     E||--0--0---|    E||--0--0---|   E||--3--3---|
B||--1--1---|     B||--1--1---|    B||--1--1---|   B||--3--3---|
D||--2--2---|     D||--2--2---|    D||--2--2---|   D||--2--2---|
G||---------|     G||---------|    G||---------|   G||---------|
A||0----0---|     A||3----3---|    A||0----0---|   A||---------|
E||---------|     E||---------|    E||---------|   E||2----2---|

*STRUM*

E||0-------|
B||1-------|
D||2-------|
G||3-------|
A||3-------|
E||--------|

INSTRUMENTAL****NOTE: start singing at "you are, you are, so perfect in your selfishness"

E||------------|     E||-----------|    E||------------|
B||------------|     B||-----------|    B||------------|
D||---0-0h2-0--| 2x  D||--0-0h2-0--| 2x D||---0-0h2-0--|
G||-0---------0|     G||-0--------0|    G||--0--------0|
A||------------|     A||3----------|    A||------------|
E||3-----------|     E||-----------|    E||0-----------|

E||-----------|  E||-----------|
B||-----------|  B||-----------|
D||--0-0h2-0--|  D||--0-0h2-0--| 2x
G||-0--------0|  G||-0--------0|
A||0----------|  A||3----------|
E||-----------|  E||-----------|

CHORUS:

E||------------|     E||-----------|    E||------------|
B||------------|     B||-----------|    B||------------|
D||---0-0h2-0--| 2x  D||--0-0h2-0--| 2x D||---0-0h2-0--|
G||-0---------0|     G||-0--------0|    G||--0--------0|
A||------------|     A||3----------|    A||------------|
E||3-----------|     E||-----------|    E||0-----------|

E||-----------|  E||-----------|
B||-----------|  B||-----------|
D||--0-0h2-0--|  D||--0-0h2-0--| 2x
G||-0--------0|  G||-0--------0|
A||0----------|  A||3----------|
E||-----------|  E||-----------|

You make you make, me so uptight.
You make you make me go in every direction.
You are you are so perfect in your selfishness.
Suggest correction
comments
print report bad tab
1 comment total.
0 reply
d-mau 10 Jul 14, 2013 06:48 PM

Standard tuning is EADGBe, not EAGDBe. Otherwise it doesn't look too bad. Cant wait to try it out.

guest
You may want to rate the tab now too:
select rating
Wanna post a correction for this tab? Suggest correction