Oops, an error
Loading. Please wait.

Heavily Rizing - Rizing To The Top Tab

24 views 1 this week
no commentswrite comment
1 2 3 4 5
please rate
add to favorites
launch autoscroll
font size
0
reset
how to read this tab
guitar tuner
Autoscroll
slow
fast
+/-
esc
set tempo
stop
Help us to improve Ultimate-Guitar.com Take our survey!
×
                       Rizing to the Top - Heavily Rizing
----------------------------------------------------------------------------

Tuning:Drop d

  INTRO:
e|--------------------------------------------|x3|-------------------------|
B|--------------------------------------------|  |-------------------------|
G|--------------------------------------------|  |-------------------------|
D|--------------------------------------------|  |-------------------------|
A|--0-------0------0-----0------0-----0-------|  |--0~~~~------------------|
d|--0--000--0--00--0--0--0--00--0--0--0--0----|  |--0~~~~------------------|
       xxx     xx     x     xx     x     x          ^ let open note ring
  VERSE:x2                                              4th time through.
e|-------------------------------------------------------------------------|
B|-------------------------------------------------------------------------|
G|-------------------------------------------------------------------------|
D|-----------------7--5---------------------------7--5---------------------|
A|----------5------5--3--0--3-3------------5------5--3--0--5-5-------------|
d|-00000000-5-0000-------0--3-3---00000000-5-0000-------0--5-5-------------|
   xxxxxxxx   xxxx                xxxxxxxx   xxxx

e|-------------------------------------------------------------------------|
B|-------------------------------------------------------------------------|
G|-------------------------------------------------------------------------|
D|-----------------7--5----------------------------------------------------|
A|----------5------5--3--0--3-3---1~---1--1--1--1-1-1-1--------------------|
d|-00000000-5-0000-------0--3-3---1~-1-1--1--1--1-1-1-1--------------------|
   xxxxxxxx   xxxx                   x   
  CHORUS:x2
e|-------------------------------------------------------------------------|
B|-------------------------------------------------------------------------|
G|-------------------------------------------------------------------------|
D|---------7--7-7--777----------5--5-5--333----------7--7-7--777-----------|
A|-5--5----5--5-5--555--3--3----3--3-3--111--5--5----5--5-5--555-----------|
d|-5--5-00--------------3--3-00--------------5--5-00-----------------------|
        xx                   xx                   xx
e|------------------------------|
B|------------------------------|
G|------------------------------|
D|--------5---------------------|
A|--3-----3-----1--1-1--3-3-3---|
d|--3--0-----0--1--1-1--3-3-3---|
       x     x
 RYTHM FOR BRIDGE:
e|-------------------------------------------------------------------------|
B|-------------------------------------------------------------------------|
G|-------------------------------------------------------------------------|
D|-------------------------------------------------------------------------|
A|---------3---------------3---3~-----------3---------------5---3~---------|
d|-0-0-0-0-3-0-0-000-0-0-0-3-0-3~---0-0-0-0-3-0-0-000-0-0-0-5-0-3~---------|
   x x x x   x x xxx x x x   x      x x x x   x x xxx x x x   x
  SOLO:                   
e|---------------------------------------15----14-12-----------------------|
B|-/12-12-12-12-15-14-12-121212-12-12-12----12---------12-12-12-12-15-14---|
G|----------------------^(three 12's)--------------------------------------|
D|-------------------------------------------------------------------------|
A|-------------------------------------------------------------------------|
d|-------------------------------------------------------------------------|

e|-------------------------------------15p14p12-17p15p12-15p14p12----------|
B|-12\10/12-15p14p12-15p14p12-15p14p12-----------------------------12-12---|
G|-------------------------------------------------------------------------|
D|-------------------------------------------------------------------------|
A|-------------------------------------------------------------------------|
d|-------------------------------------------------------------------------|

e|--------------------------------15----14-12------------------------------|
B|-12-12-15-14-12-121212-12-12-12----12-------12-12-12-12-15-12-14-15-17bx7|
G|----------------------^(three 12's)--------------------------------------|
D|-------------------------------------------------------------------------|
A|-------------------------------------------------------------------------|
d|-------------------------------------------------------------------------|


| /  slide up
| \  slide down
| h  hammer-on
| p  pull-off
| ~  let ring
| +  harmonic
| x  Mute note
============================================================================
Suggest correction
What's this?
You can suggest a correction to this tab. Community and Mods will review your correction and vote to approve or reject it.
comments
We did not receive enough feedback on this tab! Please rate:
print report bad tab
1 2 3 4 5
guest
You may want to rate the tab now too:
select rating
Please do not post tabs as comments. Select "correction" instead!