Oops, an error
Loading. Please wait.

Hell If I Know - Stutter Bass Tab

30 views 1 this week
no commentswrite comment
1 2 3 4 5
please rate
add to favorites
launch autoscroll
font size
0
reset
guitar tuner
Autoscroll
slow
fast
+/-
esc
set tempo
stop
Help us to improve Ultimate-Guitar.com Take our survey!
×
Intro
   C                                   Bb
G|-5--5--5---------|-5--5--5---5-7-5-|-3--3--3---------|-3--3--3---3-3-0-|
D|.----------------|-----------------|-----------------|-----------------|
A|.----------------|-----------------|-----------------|-----------------|
E|-----------------|-----------------|-----------------|-----------------|


   F                                   G
G|-----------------|-----------------|-----------------|-------------7~--|
D|-3--3--3---------|-3--3--3---0-3-4-|-5--5--5---------|-5--5--5---5----.|
A|-----------------|-----------------|-----------------|----------------.|X2
E|-----------------|-----------------|-----------------|-----------------|



Verse 1
   C                                   Bb
G|-5-5-5-5-5-5-5-5-|-5-5-5-5-5-5-7-5-|-3-3-3-3-3-3-3-3-|-3-3-3-3-3-3-3-0-|
D|.----------------|-----------------|-----------------|-----------------|
A|.----------------|-----------------|-----------------|-----------------|
E|-----------------|-----------------|-----------------|-----------------|


   F                                   G
G|-----------------|-----------------|-----------------|---------------7-|
D|-3-3-3-3-3-3-3-3-|-3-3-3-3-3-0-3-4-|-5-5-5-5-5-5-5-5-|-5-5-5-5-5-5-5--.|
A|-----------------|-----------------|-----------------|----------------.|X2
E|-----------------|-----------------|-----------------|-----------------|



Chorus 1
   C                                   Bb
G|-5--5--5---------|-5--5--5---5-7-5-|-3--3--3---------|-3--3--3---3-3-0-|
D|.----------------|-----------------|-----------------|-----------------|
A|.----------------|-----------------|-----------------|-----------------|
E|-----------------|-----------------|-----------------|-----------------|


   F                                   G
G|-----------------|-----------------|-----------------|-------------7~--|
D|-3--3--3---------|-3--3--3---0-3-4-|-5--5--5---------|-5--5--5---5----.|
A|-----------------|-----------------|-----------------|----------------.|X2
E|-----------------|-----------------|-----------------|-----------------|



Verse 2
   C                                   Bb
G|-5-5-5-5-5-5-5-5-|-5-5-5-5-5-5-7-5-|-3-3-3-3-3-3-3-3-|-3-3-3-3-3-3-3-0-|
D|.----------------|-----------------|-----------------|-----------------|
A|.----------------|-----------------|-----------------|-----------------|
E|-----------------|-----------------|-----------------|-----------------|


   F                            G
G|-----------------|-----------------|-----------------|---------------7-|
D|-3-3-3-3-3-3-3-3-|-3-3-3-3-3-0-3-4-|-5-5-5-5-5-5-5-5-|-5-5-5-5-5-5-5--.|
A|-----------------|-----------------|-----------------|----------------.|X2
E|-----------------|-----------------|-----------------|-----------------|



Chorus 2
   C                                   Bb
G|-5--5--5---------|-5--5--5---5-7-5-|-3--3--3---------|-3--3--3---3-3-0-|
D|.----------------|-----------------|-----------------|-----------------|
A|.----------------|-----------------|-----------------|-----------------|
E|-----------------|-----------------|-----------------|-----------------|


   F                                        G
G|-----------------|-----------------|-----------------|-------------7~--|
D|-3--3--3---------|-3--3--3---0-3-4-|-5--5--5---------|-5--5--5---5----.|
A|-----------------|-----------------|-----------------|----------------.|X6
E|-----------------|-----------------|-----------------|-----------------|



Matt starts singing :)  (Look at that fuckin' smiley face.)
   C                                   Bb
G|-5-5-5-5-5-5-5-5-|-5-5-5-5-5-5-7-5-|-3-3-3-3-3-3-3-3-|-3-3-3-3-3-3-3-0-|
D|-----------------|-----------------|-----------------|-----------------|
A|-----------------|-----------------|-----------------|-----------------|
E|-----------------|-----------------|-----------------|-----------------|


   F                                        G
G|-----------------|-----------------|-----------------|---------------7-|
D|-3-3-3-3-3-3-3-3-|-3-3-3-3-3-0-3-4-|-5-5-5-5-5-5-5-5-|-5-5-5-5-5-5-5---|
A|-----------------|-----------------|-----------------|-----------------|X1
E|-----------------|-----------------|-----------------|-----------------|
Suggest correction
Give kudos to tab author, rate the tab!
1 2 3 4 5
comments
print report bad tab
guest
You may want to rate the tab now too:
select rating
Please do not post tabs as comments. Select "correction" instead!