Oops, an error
Loading. Please wait.

Hello Brooklyn - Here We Are Tab

136 views 1 this week
no commentswrite comment
1 2 3 4 5
please rate
add to favorites
launch autoscroll
font size
0
reset
how to read this tab
guitar tuner
Tab Pro tools
  • play this tab
  • loop segment
  • change instrument
  • show fretboard
  • metronome
×
Best way to learn
"Hello Brooklyn - Here We Are"
Autoscroll
slow
fast
+/-
esc
set tempo
stop
Contributor
Difficulty
novice
Song Title:   Here We Are
Artist/Band:  Hello Brooklyn
Album/Year:   Under The Stars (2012)
Tabbed By:    Pauz Prima (primesenthyx@yahoo.com)

------------------------------------------------------------------------------------------------

INTRO:

Guitar 1 & 2:

|----------------------------------------------------------------------------------|
|----------------------------------------------------------------------------------|
|-----------1111111111111111-777777777777/9-1111111111111111/12-7777777777-9999999-|
|-xxxx-xxxx------------------------------------------------------------------------|
|-xxxx-xxxx-9-9-9-9-9-9-9-9--555555555555/7-9-9-9-9-9-9-9-9//10-5555555555-7777777-|
|-xxxx-xxxx------------------------------------------------------------------------|


Guitar 1: D-G-Bm-G-A

Guitar 2:

|--------------------------|
|--------------------------|
|-1111-9-11-x-1111-9-11-7~-|
|-----------x--------------| 2x
|-9-9--7-9--x-9-9--7-9--5~-|
|--------------------------|

|------------------------------------------|
|------------------------------------------|
|-1111-9-11-x-1111-9-11-7-7~-77777-999999~-|
|-----------x------------------------------|
|-9-9--7-9--x-9-9--7-9--5-5~-55555-777777~-|
|------------------------------------------|


VERSE 1:

Guitar 1: D-Em-D-A (2x)

Guitar 2:

|-------------------------------------------------------------------------------|
|-------------------------------------------------------------------------------|
|-7-77-xxxx-7-77-xxxx-7-77-xxxx-7-77-xxxx-7-77-xxxx-7-77-xxxx-77777777-99999999-|
|------xxxx------xxxx------xxxx------xxxx------xxxx------xxxx-------------------|
|-5-55-xxxx-5-55-xxxx-5-55-xxxx-5-55-xxxx-5-55-xxxx-5-55-xxxx-55555555-77777777-|
|-------------------------------------------------------------------------------|

|--------------------------------|
|-----7-0-8-0-10-0-8-0-7-0-7h8-7-|
|-7-7----------------------------|
|--------------------------------| 4x
|--------------------------------|
|--------------------------------|


REFRAIN:

Guitar 1: Em-D-G-A (2x)

Guitar 2:

|-----------------------------------------|
|-----------------------------------77777-|
|-44444444-66666666-7777777777-9999-------|
|-----------------------------------------| 3x
|-----------------------------------------|
|-----------------------------------------|

|---------------------------------------------------------------------|
|-0-0-10------10------10------10------10-00-7-0-8-0-10-8-0-7-0-7-8-7~-|
|--------9-11----9-11----9-11----9-11---------------------------------|
|---------------------------------------------------------------------|
|---------------------------------------------------------------------|
|---------------------------------------------------------------------|


CHORUS:

Guitar 1: D-A-Bm-G-A (2x)

Guitar 2:

|-------------------------------------------------------------------|
|-7---7---7---7---5---5---5---5---7---7---10---10-------------------|
|---7---7---7---7---7---7---7---7---7---7----7----7-77777-999999999-|
|---------------------------------------------------55555-777777777-|
|-------------------------------------------------------------------|
|-------------------------------------------------------------------|

|-----------------------------------------|
|-----------------------------------------|
|-----------------------------------------|
|-77777777-77777777-99999999-55555-777777-|
|-55555555-77777777-99999999-55555-777777-|
|----------55555555-77777777-33333-555555-|


INTERLUDE:

Guitar 1: D-G-Bm-G-A

Guitar 2:

|--------------------------|
|--------------------------|
|-1111-9-11-x-1111-9-11-7~-|
|-----------x--------------| 2x
|-9-9--7-9--x-9-9--7-9--5~-|
|--------------------------|

|------------------------------------------|
|------------------------------------------|
|-1111-9-11-x-1111-9-11-7-7~-77777-999999~-|
|-----------x------------------------------|
|-9-9--7-9--x-9-9--7-9--5-5~-55555-777777~-|
|------------------------------------------|


VERSE 2:

Guitar 1: D-Em-D-A (2x)

Guitar 2:

|-------------------------------------------------------------------------------|
|-------------------------------------------------------------------------------|
|-7-77-xxxx-7-77-xxxx-7-77-xxxx-7-77-xxxx-7-77-xxxx-7-77-xxxx-77777777-99999999-|
|------xxxx------xxxx------xxxx------xxxx------xxxx------xxxx-------------------|
|-5-55-xxxx-5-55-xxxx-5-55-xxxx-5-55-xxxx-5-55-xxxx-5-55-xxxx-55555555-77777777-|
|-------------------------------------------------------------------------------|

|------------------------------------------------------------------------|
|------------------------------------------------------------------------|
|-7-7-7-7-7-7-777-9-9-9-9-9-9-999-12-12-12-12-12-12-121212\11-9~~-999999-|
|------------------------------------------------------------------------|
|-5-5-5-5-5-5-555-7-7-7-7-7-7-777-10-10-10-10-10-10-101010\9--7~~-777777-|
|------------------------------------------------------------------------|


Repeat REFRAIN & CHORUS


BRIDGE:

Guitar 1: Bm-D-Em-A-Bm-D-Bm-A

Guitar 2:

|------------------------------------------------------------------------------------|
|------------------------------------------------------------------------------------|
|-444444444444/6-6-77777777-999999/11-9-7-7777777777777-9/11-9-7-77777777-9999999999-|
|------------------------------------------------------------------------------------|
|-222222222222/4-4-55555555-777777/9--7-5-5555555555555-7/9--7-5-55555555-7777777777-|
|------------------------------------------------------------------------------------|

|----------------------------------------------------------------------------------------------|
|----------------------------------------------------------------------------------------------|
|-11-111111-11-11-11-11-11-11-111111-12-12-12-12-12-12-121212-11-1111-11-11-11-11-11-11-111111-|
|----------------------------------------------------------------------------------------------|
|-9--9-9-9--9--9--9--9--9--9--9-9-9--10-10-10-10-10-10-101010-9--9-9--9--9--9--9--9--9--9-9-9--|
|----------------------------------------------------------------------------------------------|

|----------------------|
|----------------------|
|-9-9999999-7777-9999~-|
|----------------------|
|-7-7777777-5555-7777~-|
|----------------------|


CHORUS:

Guitar 1: D-A-Bm-G-A (2x)

Guitar 2:

|---------------------------------------------------------|
|-7---7---7---7---5---5---5---5---------------------------|
|---7---7---7---7---7---7---7---7-------------------------|
|-----------------------------------99999999-55555-777777-|
|-----------------------------------99999999-55555-777777-|
|-----------------------------------77777777-33333-555555-|

|-----------------------------------------|
|-----------------------------------------|
|-----------------------------------------|
|-77777777-77777777-99999999-55555-777777-|
|-55555555-77777777-99999999-55555-777777-|
|----------55555555-77777777-33333-555555-|


OUTRO:

Guitar 1: D-G-Bm-G-A (2x) D---

Guitar 2:

|--------------------------|
|--------------------------|
|-1111-9-11-x-1111-9-11-7~-|
|-----------x--------------| 2x
|-9-9--7-9--x-9-9--7-9--5~-|
|--------------------------|

|------------------------------------------|
|------------------------------------------|
|-1111-9-11-x-1111-9-11-7-7~-77777-999999~-|
|-----------x------------------------------|
|-9-9--7-9--x-9-9--7-9--5-5~-55555-777777~-|
|------------------------------------------|

|---------------------------------------------------------------------------|
|---------------------------------------------------------------------------|
|-11-1111111111111111-12-1212121212121212/14-11-1111111111111111-9-99999999-|
|---------------------------------------------------------------------------|
|-9--9-9-9-9-9-9-9-9--10-1010101010101010/12-9--9-9-9-9-9-9-9-9--7-77777777-|
|---------------------------------------------------------------------------|

|-----------------------------------------------------------|
|----------------------------------------------------15\\~~-|
|-11-1111-xxx-11-1111-xxx-11-1111-xxx-11-1111-111111--------|
|---------xxx---------xxx---------xxx----------------12\\~~-|
|-9--9-9--xxx-9--9-9--xxx-9--9-9--xxx-9--9-9--9-9-9---------|
|-----------------------------------------------------------|


~ - let ring/ vibrato
/ - slide up
\ - slide down
h - hammer on
x - dead note

-------------------------------------------------------------------------------------------

SenthyX Zone
Senthyx Band
comments
We did not receive enough feedback on this tab! Please rate:
print report bad tab
1 2 3 4 5
I want to post or [tab]
guest
You may want to rate the tab now too:
select rating
Please do not post tabs as comments. Select "correction" instead!