Oops, an error
Loading. Please wait.

Hoax Uk - Kicking Off Tab

563 views 1 this week
no commentswrite comment
1 2 3 4 5
please rate
add to favorites
launch autoscroll
font size
0
reset
how to read this tab
guitar tuner
Tab Pro tools
  • play this tab
  • loop segment
  • change instrument
  • show fretboard
  • metronome
×
Best way to learn
"Hoax Uk - Kicking Off"
Autoscroll
slow
fast
+/-
esc
set tempo
stop
Contributor
Difficulty
novice
By Shar Johnston
Guitarist: Samanie
This is my first tab tell me if you like it.
batista_rules_349@hotmail.com
Intro: Clean                                                   OKAY!
Eb|--------------------------------------------------------------|
Bb|--------------------------------------------------------------|
Gb|---------4--4---------------6-6----------4--4-----------------|
Db|-6-6-----4--4-----4-4-4-----6-6--6-6-----4--4-----4--4-4-4--6-| [1x]
Ab|-6-6--0--2--2--0--4-4-4--0--4-4--6-6--0--2--2--0--4--4-4-4--6-|
Eb|-4-4--0--------0--2-2-2--0-------4-4--0--------0--2--2-2-2--4-|
Intro cont'd: heavy dist.
Eb|--------------------------------------------------------------|
Bb|--------------------------------------------------------------|
Gb|---------4--4---------------6-6----------4--4-----------------|
Db|-6-6-----4--4-----4-4-4-----6-6--6-6-----4--4-----4--4-4-4--6-| [2x]
Ab|-6-6--0--2--2--0--4-4-4--0--4-4--6-6--0--2--2--0--4--4-4-4--6-|
Eb|-4-4--0--------0--2-2-2--0-------4-4--0--------0--2--2-2-2--4-|
Verse: Wanna learn to fly, wanna climb so high
Its kicking off!
Eb|-X-X-X-X-X-X-X-X--------------------------------|
Bb|-X-X-X-X-X-X-X-X--------------------------------|
Gb|-X-X-X-X-X-X-X-X---------4--4-------------------|
Db|-X-X-X-X-X-X-X-X--6-6----4--4-----4--4-4-4--6-6-|
Ab|-X-X-X-X-X-X-X-X--6-6-0--2--2--0--4--4-4-4--6-6-|
Eb|-X-X-X-X-X-X-X-X--4-4-0--------0--2--2-2-2--4-4-|
Verse: Bought a ticket out of this hole, play my rock n roll
We're kicking off!
Eb|-X-X-X-X-X-X-X-X--------------------------------|
Bb|-X-X-X-X-X-X-X-X--------------------------------|
Gb|-X-X-X-X-X-X-X-X---------4--4-------------------|
Db|-X-X-X-X-X-X-X-X--6-6----4--4-----4--4-4-4--6-6-|
Ab|-X-X-X-X-X-X-X-X--6-6-0--2--2--0--4--4-4-4--6-6-|
Eb|-X-X-X-X-X-X-X-X--4-4-0--------0--2--2-2-2--4-4-|
Pre Chorus: Tryin to take my life, my life to new levels,
Gonna shake it all up so my heart rate trebles
Eb|----------------------------------|
Bb|----------------------------------|
Gb|------------------1-1-1-1-1-1-1-1-|
Db|-4-4-4-4-4-4-4-4--2-2-2-2-2-2-2-2-|
Ab|-4-4-4-4-4-4-4-4--2-2-2-2-2-2-2-2-|
Eb|-2-2-2-2-2-2-2-2------------------|
Verse: We're getting out of this place, now get out of my face
We're lifting off!
Eb|-X-X-X-X-X-X-X-X--------------------------------|
Bb|-X-X-X-X-X-X-X-X--------------------------------|
Gb|-X-X-X-X-X-X-X-X---------4--4-------------------|
Db|-X-X-X-X-X-X-X-X--6-6----4--4-----4--4-4-4--6-6-|
Ab|-X-X-X-X-X-X-X-X--6-6-0--2--2--0--4--4-4-4--6-6-|
Eb|-X-X-X-X-X-X-X-X--4-4-0--------0--2--2-2-2--4-4-|
Verse: Somewhere we can get more, feel more
We're lifting off!
Eb|-X-X-X-X-X-X-X-X--------------------------------|
Bb|-X-X-X-X-X-X-X-X--------------------------------|
Gb|-X-X-X-X-X-X-X-X---------4--4-------------------|
Db|-X-X-X-X-X-X-X-X--6-6----4--4-----4--4-4-4--6-6-|
Ab|-X-X-X-X-X-X-X-X--6-6-0--2--2--0--4--4-4-4--6-6-|
Eb|-X-X-X-X-X-X-X-X--4-4-0--------0--2--2-2-2--4-4-|
Pre Chorus: Tryin to take my life, my life to new levels,
Gonna shake it all up so my heart rate trebles
Eb|----------------------------------|
Bb|----------------------------------|
Gb|------------------1-1-1-1-1-1-1-1-|
Db|-4-4-4-4-4-4-4-4--2-2-2-2-2-2-2-2-|
Ab|-4-4-4-4-4-4-4-4--2-2-2-2-2-2-2-2-|
Eb|-2-2-2-2-2-2-2-2------------------|
Chorus: Come oooooooooon!
Is there anybody out there?
Anybody out there?
Is there anybody out there?
Eb|--------------------------------------------------------------|
Bb|--------------------------------------------------------------|
Gb|---------4--4---------------6-6----------4--4-----------------|
Db|-6-6-----4--4-----4-4-4-----6-6--6-6-----4--4-----4--4-4-4--4-| [2x]
Ab|-6-6--0--2--2--0--4-4-4--0--4-4--6-6--0--2--2--0--4--4-4-4--4-|
Eb|-4-4--0--------0--2-2-2--0-------4-4--0--------0--2--2-2-2--6-|
Verse: Gettin' out of my face, now get out of this place
It's kicking off!
Eb|-X-X-X-X-X-X-X-X--------------------------------|
Bb|-X-X-X-X-X-X-X-X--------------------------------|
Gb|-X-X-X-X-X-X-X-X---------4--4-------------------|
Db|-X-X-X-X-X-X-X-X--6-6----4--4-----4--4-4-4--6-6-|
Ab|-X-X-X-X-X-X-X-X--6-6-0--2--2--0--4--4-4-4--6-6-|
Eb|-X-X-X-X-X-X-X-X--4-4-0--------0--2--2-2-2--4-4-|
Verse: Somewhere we can get more, feel more
We're lifting off!
Eb|-X-X-X-X-X-X-X-X--------------------------------|
Bb|-X-X-X-X-X-X-X-X--------------------------------|
Gb|-X-X-X-X-X-X-X-X---------4--4-------------------|
Db|-X-X-X-X-X-X-X-X--6-6----4--4-----4--4-4-4--6-6-|
Ab|-X-X-X-X-X-X-X-X--6-6-0--2--2--0--4--4-4-4--6-6-|
Eb|-X-X-X-X-X-X-X-X--4-4-0--------0--2--2-2-2--4-4-|
Pre Chorus: Tryin' to take my life, my life to new levels,
Gonna shake it all up so my heart rate trebles
Eb|----------------------------------|
Bb|----------------------------------|
Gb|------------------1-1-1-1-1-1-1-1-|
Db|-4-4-4-4-4-4-4-4--2-2-2-2-2-2-2-2-|
Ab|-4-4-4-4-4-4-4-4--2-2-2-2-2-2-2-2-|
Eb|-2-2-2-2-2-2-2-2------------------|
Chorus: Come oooooooooon!
Is there anybody out there?
Anybody out there?
Is there anybody out there?
Eb|--------------------------------------------------------------|
Bb|--------------------------------------------------------------|
Gb|---------4--4---------------6-6----------4--4-----------------|
Db|-6-6-----4--4-----4-4-4-----6-6--6-6-----4--4-----4--4-4-4--6-| [2x]
Ab|-6-6--0--2--2--0--4-4-4--0--4-4--6-6--0--2--2--0--4--4-4-4--6-|
Eb|-4-4--0--------0--2-2-2--0-------4-4--0--------0--2--2-2-2--4-|
Bridge
Eb|------------------------------------|
Bb|------------------------------------|
Gb|------------------/1-1-1-1-1-1-1-1--|
Db|-4-4-4-4-4-4-4-4/--2-2-2-2-2-2-2-2--|
Ab|-4-4-4-4-4-4-4-4/--2-2-2-2-2-2-2-2--|
Eb|-2-2-2-2-2-2-2-2/-------------------|
Chorus: Come on, come on!
Yaaaaaa! Is there anybody out there?
Anybody out there?
Is there anybody out there?
Eb|--------------------------------------------------------------|
Bb|--------------------------------------------------------------|
Gb|---------4--4---------------6-6----------4--4-----------------|
Db|-6-6-----4--4-----4-4-4-----6-6--6-6-----4--4-----4--4-4-4--6-|
Ab|-6-6--0--2--2--0--4-4-4--0--4-4--6-6--0--2--2--0--4--4-4-4--6-|
Eb|-4-4--0--------0--2-2-2--0-------4-4--0--------0--2--2-2-2--4-|
Come oooooooooooon!
Is there anybody out there?
Anybody out there?
Is there anybody out there?
Eb|--------------------------------------------------------------|
Bb|--------------------------------------------------------------|
Gb|---------4--4---------------6-6----------4--4-----------------|
Db|-6-6-----4--4-----4-4-4-----6-6--6-6-----4--4-----4--4-4-4--6-|
Ab|-6-6--0--2--2--0--4-4-4--0--4-4--6-6--0--2--2--0--4--4-4-4--6-|
Eb|-4-4--0--------0--2-2-2--0-------4-4--0--------0--2--2-2-2--4-|
Ending: YAAAAAAA ALRIIIIIGHT! COME OOOONN!!
[strum this lots of times..]
Eb|---
Bb|---
Gb|---
Db|-4-
Ab|-4-
Eb|-2-

I'm not sure if the lyrics are rite. its kinda hard to understand Chris kinda screamin. 
amazing tho!! email me if u want to correct the lyrics.. thanks!
note that this band was from Gene Simmons Rock School Season 2.
comments
We did not receive enough feedback on this tab! Please rate:
print report bad tab
1 2 3 4 5
I want to post or [tab]
guest
You may want to rate the tab now too:
select rating
Please do not post tabs as comments. Select "correction" instead!