Oops, an error
Loading. Please wait.

Holden Lager - Actions For Love Tab

63 views 1 this week
no commentswrite comment
1 2 3 4 5
2 more votes to show rating
add to favorites
launch autoscroll
font size
0
reset
how to read this tab
guitar tuner
Autoscroll
slow
fast
+/-
esc
set tempo
stop
Help us to improve Ultimate-Guitar.com Take our survey!
×
Author
normal tunning(E B G D A E)

/-strum up
\-strum down
x-mute

When you play the chords,
strum it a couple times
almost like this \ /\ /\/


INTRO
(1 stroke per cord fot only this part)

E-2---------------|3----------------|2----------------|0-----------------|2-
B-3---------------|3----------------|3----------------|3-----------------|3-
G-2---------------|2----------------|2----------------|2-----------------|2-
D-0---------------|0----------------|0----------------|0-----------------|0-
A-x---------------|x----------------|x----------------|x-----------------|x-
E-x---------------|x----------------|x----------------|x-----------------|x-


PART 1
  G5               Cadd9             D                 5
E-3---------------|3----------------|2----------------|3-----------------|
B-3---------------|3----------------|3----------------|3-----------------|
G-0---------------|0----------------|2----------------|0-----------------|
D-0---------------|2----------------|0----------------|0-----------------|
A-2---------------|3----------------|x----------------|2-----------------|
E-3---------------|x----------------|x----------------|3-----------------|


PART 2
  G5               C                  G5
E-3---------------|0----------------|-3----------------|-2---------------|
B-3---------------|1----------------|-3----------------|-3---------------|
G-0---------------|0----------------|-0----------------|-2---------------|
D-0---------------|2----------------|-0----------------|-0---------------|
A-2---------------|3----------------|-2----------------|-x---------------|
E-3---------------|x----------------|-3----------------|-x---------------|


PART 3

E-3---------------|-0---------------|-3----------------|-2---------------|
B-0---------------|-1---------------|-0----------------|-3---------------|
G-0---------------|-0---------------|-0----------------|-3---------------|
D-x---------------|-x---------------|-x----------------|-x---------------|
A-x---------------|-x---------------|-x----------------|-x---------------|
E-x---------------|-x---------------|-x----------------|-x---------------|


break
  E                 C                 F#7                D
E-0---------------|-0---------------|-0----------------|-2---------------|
B-0---------------|-1---------------|-1----------------|-3---------------|
G-0---------------|-0---------------|-2----------------|-2---------------|
D-2---------------|-2---------------|-2----------------|-0---------------|
A-2---------------|-3---------------|-x----------------|-x---------------|
E-x---------------|-x---------------|-x----------------|-x---------------|


OUTRO
  G5               Cadd9            (strum these just how is shown)
E-3---------------|3----------------|2-0-2-02020--0---|3-----3-----------|
B-3---------------|3----------------|3-0-3-03030--0---|3-----3-----------|
G-0---------------|0----------------|2-0-2-02020--0---|0-----0-----------|
D-0---------------|2----------------|0-0-0-00000--0---|0-----0-----------|
A-2---------------|3----------------|x-x-x-xxxxx--x---|2-----2-----------|
E-3---------------|x----------------|x-x-x-xxxxx--x---|3-----3-----------|

Suggest correction
Give kudos to tab author, rate the tab!
1 2 3 4 5
comments
print report bad tab
guest
You may want to rate the tab now too:
select rating
Wanna post a correction for this tab? Suggest correction