Oops, an error
Loading. Please wait.

Holden Lager - Love Song For No One Tab

387 views 1 this week
no commentswrite comment
1 2 3 4 5
please rate
add to favorites
launch autoscroll
font size
0
reset
how to read this tab
guitar tuner
Autoscroll
slow
fast
+/-
esc
set tempo
stop
Help us to improve Ultimate-Guitar.com Take our survey!
×
Author
Capo
5th fret
/======\
|Legend|
\======/
T    Tap all 6 strings with your plucking
     hand to make a thumping kinda noise
.    let ring
H    Hammer


I play this song with the capo on the 5th fret
and sing it with the tone of my guitar
but it still sounds good without a capo though
I also finger pick so it is a little cleaner


VERSE 1
e|--3-T-----3---T------3--T-3----3----3---|
b|--3-T-----3---T------3--T-3----3----3---|
g|--0-T-----0---T------0--T-0----0----0---|
d|----T---------T---------T---------------|
a|----T-2-------T-3-------T-0----3----2---|
e|-3--T---------T---------T---------------|
   I’ll put  my  arm around your shoulder

                      ........
e|-3---------3----3---3-------|
b|-3---------3----3---3-------|
g|-0---------0----0---0-------|
d|----------------------------|
a|-0---------3----2---0-------|
e|----------------------------|
   Under the moon lit stars


e|-----3----T------3---T---3---3---------3------|
b|-----3----T------3---T---3---3---------3------|
g|-----0----T------0---T---0---0---------0------|
d|----------T----------T------------------------|
a|----------T-2--------T---3---2----0h2--2------|
e|-3--------T----------T------------------------|
   Say what I mean without think’n of my faults

e|------3---T--------3--3----3------|
b|------3---T--------3--3----3------|
g|------0---T--------0--0----0------|
d|----------T-----------------------|
a|----------T--2-----0--3----2------|
e|--3-------T-----------------------|
    Read’n the words On your face

e|---3--T------3--T---3-T-----------------------------------|
b|---3--T------3--T---3-T-----------------------------------|
g|---0--T------0--T---0-T-----------------------------------|
d|------T---------T-----T-----------------------------------|
a|------T-2-------T-3---T-2-----0--0-3---2----0--0-h-2p0----|
e|-3----T---------T-----T--------------------------------3--|
   I can  feel what you   think as I sit next to you...............


CHORUS

e|--3--------------0------3------2---------|
b|--3--------------1------3------3---------|
g|--0--------------0------0------2---------|
d|--0--------------2------0------0---------|
a|--2--------------3------2----------------|
e|--3---------------------3----------------|
    Sitting in the middle of the street

e|------3--T----------0-T-----3---2---|
b|------3--T----------1-T-----3---3---|
g|------0--T----------0-T-----0---2---|
d|---------T------------T---------0---|
a|---------T-----3------T-3-----------|
e|--3------T------------T-------------|
    Walk'n and a talk'n,  you and me

e|-------3-T-----3-T------3-2-----|
b|-------3-T-----3-T------3-3-----|
g|-------0-T-----0-T------0-2-----|
d|---------T-------T--------0-----|
a|---------T--2----T-3------------|
e|--3------T-------T--------------|
    Hold’n my hand,  what a Greet

e|--3----------0------3-------2--|
b|--3----------1------3-------3--|
g|--0----------0------0-------2--|
d|--0----------2------2-------0--|
a|--2----------3------3----------|
e|--3----------------------------|
    Walk’n and talk’n you and me

VERSE 2

e|----3-T-------3-T----3-----------|
b|----3-T-------3-T----3-----------|
g|----0-T-------0-T----0-----------|
d|------T---------T----------------|
a|------T-----2---T-3-------2------|
e|--3---T---------T----------------|
    I’m see’n red   on your cheek

e|------3-T--------3------------------|
b|------3-T--------3------------------|
g|------0-T--------0------------------|
d|--------T------------------0--------|
a|--------T---2---------3-------0-----|
e|--3-----T---------------------------|
    Beautiful hair that cant be beat

e|-------3-T-------3--T---------3--T-------|
b|-------3-T-------3--T---------3--T-------|
g|-------0-T-------0--T---------0--T-------|
d|---------T----------T------------T-------|
a|---------T-2--------T-3----------T-2-----|
e|--3------T----------T------------T-------|
    Think'n  about the  clothes you  wear

e|----3-T------3-T-------------------------|
b|----3-T------3-T-------------------------|
g|----0-T------0-T-------------------------|
d|------T--------T-------------------------|
a|------T-2------T-3-----0-h2p0------------|
e|--3---T--------T--------------3........--|
    Only  think'n  about you.............

Solo

e|----3-T---3-T---3-T-3-3-3----0-T-0-4-0--0-4-2-4--|
b|----3-T---3-T---3-T-3-3-3----1-T-1-1-1--1---3----|
g|----0-T---0-T---0-T-0-0-0----2-T-2-2-2--0---2----|
d|------T-----T-----T------------T------------0----| X2
a|------T-2---T-3---T-0-3-2--0---T-0-0-0--3--------|
e|--3---T-----T-----T------------T-----------------|


Chorus

e|-----3-----T--------0-T----3---2-------|
b|-----3-----T--------1-T----3---3-------|
g|-----0-----T--------0-T----0---2-------|
d|-----------T----------T--------0-------|
a|-----------T-----3----T-2--------------|
e|--3--------T----------T----------------|
    Sitting in the middle of the street

e|------3--T----------0-T-----3---2---|
b|------3--T----------1-T-----3---3---|
g|------0--T----------0-T-----0---2---|
d|---------T------------T---------0---|
a|---------T-----3------T-3-----------|
e|--3------T------------T-------------|
    Walk'n and a talk'n,  you and me

e|-------3-T-----3-T------3-2-----|
b|-------3-T-----3-T------3-3-----|
g|-------0-T-----0-T------0-2-----|
d|---------T-------T--------0-----|
a|---------T--2----T-3------------|
e|--3------T-------T--------------|
    Hold’n my hand,  what a Greet

e|--3----------0------3-------2--|
b|--3----------1------3-------3--|
g|--0----------0------0-------2--|
d|--0----------2------2-------0--|
a|--2----------3------3----------|
e|--3----------------------------|
    Walk’n and talk’n you and me

Outro

e|--3--------------0------3------2---------|
b|--3--------------1------3------3---------|
g|--0--------------0------0------2---------|
d|--0--------------2------0------0---------|
a|--2--------------3------2----------------|
e|--3---------------------3----------------|
    Sitting in the middle of the street

e|------3--T----------0-T-----3---2---|
b|------3--T----------1-T-----3---3---|
g|------0--T----------0-T-----0---2---|
d|---------T------------T---------0---|
a|---------T-----3------T-3-----------|
e|--3------T------------T-------------|
    Walk'n and a talk'n,  you and me

e|-------3-T-----3-T------3-2-----|
b|-------3-T-----3-T------3-3-----|
g|-------0-T-----0-T------0-2-----|
d|---------T-------T--------0-----|
a|---------T--2----T-3------------|
e|--3------T-------T--------------|
    Hold’n my hand,  what a Greet

e|--3----------0----------0---3...........--|
b|--3----------1----------1---3...........--|
g|--0----------0----------0---0...........--|
d|--0----------2----------------------------|
a|--2----------3------3---------------------|
e|--3-------------------------3...........--|
    Walk’n and talk’n you and me..........
Suggest correction
Give kudos to tab author, rate the tab!
1 2 3 4 5
comments
print report bad tab
guest
You may want to rate the tab now too:
select rating
Please do not post tabs as comments. Select "correction" instead!