Oops, an error
Loading. Please wait.

Holly Would - Ida Bass Tab

64 views 1 this week
no commentswrite comment
1 2 3 4 5
3 more votes to show rating
add to favorites
launch autoscroll
font size
0
reset
guitar tuner
Autoscroll
slow
fast
+/-
esc
set tempo
stop
Help us to improve Ultimate-Guitar.com Take our survey!
×
Author
Difficulty
Tuning
novice
D A D G B E
-------------------------------------------------------------------------------
                             IDA - HOLLY WOULD...
-------------------------------------------------------------------------------
Tabbed by: DONALD SNYDER
E-mail: TRIPSNYDER@YAHOO.COM

Tuning:DROP D

G|---------------------------------------------------------------------------|
D|---------------------------------------------------------------------------|
A|---------------------------------------------------------------------------|
E|--1---111-11\----777----5--5---7\3----333------777----55-----7-------------|X6

G|---------------------------------------------------------------------------|
D|---------------------------------------------------------------------------|
A|---------------------------------------------------------------------------|
E|-1-1/------7--7--5-5-------------------------------------------------------|X1

G|---------------------------------------------------------------------------|
D|---------------------------------------------------------------------------|
A|---------------------------------------------------------------------------|
E|1111--------7777-----5555--5-7---------------------------------------------|X2

G|---------------------------------------------------------------------------|
D|---------------------------------------------------------------------------|
A|---------------------------------------------------------------------------|
E|--1---111-11\----777----5--5---7\3----333------777----55-----7-------------|X1

G|---------------------------------------------------------------------------|
D|---------------------------------------------------------------------------|
A|---------------------------------------------------------------------------|
E|-1-1/------7--7--5-5-------------------------------------------------------|X2

G|---------------------------------------------------------------------------|
D|---------------------------------------------------------------------------|
A|---------------------------------------------------------------------------|
E|--1---111-11\----777----5--5---7\3----333------777----55-----7-------------|X2

G|------------------------------------------------------------------------------|
D|------------------------------------------------------------------------------|
A|------------------------------------------------------------------------------|
E|-1-1/------7--7--5-5/--------------12121212121212-----------------------------|X1

G|---------------------------------------------------------------------------|
D|---------------------------------------------------------------------------|
A|---------------------------------------------------------------------------|
E|1111--------7777-----5555--5-7---------------------------------------------|X2

PLUCK A LITTLE HARDER
G|---------------------------------------------------------------------------|
D|---------------------------------------------------------------------------|
A|---------------------------------------------------------------------------|
E|1111--------7777-----5555--5-7---------------------------------------------|X1

G|---------------------------------------------------------------------------|
D|---------------------------------------------------------------------------|
A|-----------------------------5H7-------------------------------------------|
E|1--111--------7--777-----5-------------------------------------------------|

G|------------------------------------------------------------------------------|
D|------------------------------------------------------------------------------|
A|-----------------------------5H77---------------------------------------------|
E|1--111--------7--777-----5----------------------------------------------------|

G|---------------------------------------------------------------------------|
D|---------------------------------------------------------------------------|
A|---------------------------------------------------------------------------|
E|--1---111-11\----777----5-----3----333------777----55-----7----------------|X2

G|---------------------------------------------------------------------------|
D|---------------------------------------------------------------------------|
A|---------------------------------------------------------------------------|
E|-------9--7--5--7--5--3-5--3-----------------------------------------------|X1


G|---------------------------------------------------------------------------|
D|---------------------------------------------------------------------------|
A|---------------------------------------------------------------------------|
E|1111--------7777-----5555--5-7---------------------------------------------|X2

PLUCK A LITTLE HARDER
G|---------------------------------------------------------------------------|
D|---------------------------------------------------------------------------|
A|---------------------------------------------------------------------------|
E|1111--------7777-----5555--5-7---------------------------------------------|X1

G|---------------------------------------------------------------------------|
D|---------------------------------------------------------------------------|
A|---------------------------------------------------------------------------|
E|1111--------7777-----5555--5-7---------------------------------------------|X1

G|---------------------------------------------------------------------------|
D|---------------------------------------------------------------------------|
A|---------------------------------------------------------------------------|
E|--1---111-11\----777----5-----3----333------777----55-----7----------------|X1


| /  slide up
| \  slide down
| h  hammer-on
| p  pull-off
| ~  vibrato
| +  harmonic
| x  Mute note
===============================================================================
Suggest correction
Give kudos to tab author, rate the tab!
1 2 3 4 5
comments
print report bad tab
guest
You may want to rate the tab now too:
select rating
Wanna post a correction for this tab? Suggest correction