Oops, an error
Loading. Please wait.

Holy Ghost Tent Revival - The End To Tab

1,508 views 1 this week
1 commentread comment
1 2 3 4 5
1 last vote to show rating
add to favorites
launch autoscroll
font size
0
reset
how to read this tab
guitar tuner
Autoscroll
slow
fast
+/-
esc
set tempo
stop
Help us to improve Ultimate-Guitar.com Take our survey!
×
Author
Difficulty
intermediate
-----------------------------------------------------------------------------
                             The End To… - Holy Ghost Tent Revival
-----------------------------------------------------------------------------
Tabbed by: oaw19

Tuning: Standard

e|-4-2-0-----------|-4-2-0------------|-------0-----------------------------|
B|--------2---2----|-------2\1/2\1/2--|-------0----------0h2------0---------|
G|-----------------|------------------|-----1----1-------1---1----1--1------|
D|-----------------|------------------|---2---------2------------------2----|
A|-0--------0---0--|-0----------------|-------------------------------------|
E|-----------------|------------------|-0--------------0--------0--------0--|
   Intro


e|-4-2-0-----------|-4-2-0------------|-------0-----------------------------|
B|--------2---2----|-------2\1/2\1/2--|-------0----------0h2------0---------|
G|-----------------|------------------|-----1----1-------1---1----1--1------|
D|-----------------|------------------|---2---------2------------------2----|
A|-0--------0---0--|-0----------------|-------------------------------------|
E|-----------------|------------------|-0--------------0--------0--------0--|


e|-4-2-0-----------|-4-2-0------------|-------0-----------0-----0----0------|
B|--------2---2----|-------2----2-----|-------0---------------------------0-|
G|-----------------|------------------|-----1----1---1------------------1---|
D|-----------------|------------------|---2--------2---------------2--------|
A|-0--------0---0--|-0-------0-----0--|----------------------2--------------|
E|-----------------|------------------|-0--------------0--------------------|
   Wouldn’t it be much easier if we could see the life we led


e|-4-2-0-----------|-4-2-0------------|-------0-----------------------------|
B|--------2---2----|-------2----2-----|-------0-----------------------------|
G|-----------------|------------------|-----1----1---1-----1----------------|
D|-----------------|------------------|---2--------2-----2---2----2----0----|
A|-0--------0---0--|-0-------0-----0--|-------------------------------------|
E|-----------------|------------------|-0--------------0--------0----1------|
    Many years from now when we’re laying down, just trying to go to bed
  

e|------------------|-------------------|---------0---------|-------4---------|
B|--------2---------|--------4----------|---------0---------|-------5--5---5--|
G|----2---2---2---2-|---4----4----4---4-|---1---------1---1-|---6--------6----|
D|------4-------4---|-----4---------4---|------2--------2---|-----6-----------|
A|----------4-------|-2---------2-------|-------------------|-4---------------|
E|-2----------------|-------------------|-0----------0------|-----------------|
    Oh, I would fix my wrongs and finish so many songs that just got stuck in my 
head                  


e|---------------|-------------|-----------------|--------0------------------|
B|---------------|-----2-------|-------4---------|--------0--------0---------|
G|-6---6-----6---|---2-2-2---2-|---4---4---4---4-|-----1-----------1---------|
D|---6-----6---6-|--2------2---|-----4-------4---|---2-----------2---2-------|
A|---------------|-0-----------|-2-------2-------|-----------0h2-------------|
E|-------4-------|-------------|-----------------|-0-------------------------|
       And we would learn to love before we were dead


e|-----------------|-4-2-0-----------|-4-2-0-----------|-------0------------|
B|---0---0---0---0-|--------2---2----|-------2----2----|-------0------------|
G|-----------------|-----------------|-----------------|-----1----1---1-----|
D|---------2-------|-----------------|-----------------|---2--------2-------|
A|-----2-------2---|-0--------0---0--|-0-------0-----0-|--------------------|
E|-0---------------|-----------------|-----------------|-0------------------|
  Sometimes it’s too much; somebody always feels rushed, you’ve got a heart of stone


e|---0---0---0------|-4-2-0-----------|-4-2-0-----------|-------0-----------|
B|----------------0-|--------2---2----|-------2----2----|-------0-----------|
G|--------------1---|-----------------|-----------------|-----1----1---1----|
D|---------2--------|-----------------|-----------------|---2--------2------|
A|-----2------------|-0--------0---0--|-0-------0-----0-|-------------------|
E|-0----------------|-----------------|-----------------|-0-----------------|
   But nobody can try to get through harder than I, no I would break my bones


e|-----------------|------------------|-------------------|---------0-------|
B|-----------------|--------2---------|--------4----------|---------0-------|
G|-----1-----------|----2---2---2---2-|---4----4----4---4-|---1---------1--1|
D|---2---2---2---0-|------4-------4---|-----4---------4---|------2--------2-|
A|-----------------|----------4-------|-2---------2-------|-----------------|
E|-0-------0---1---|--2---------------|-------------------|-0----------0----|
      Only to find that I’ve wasted time and I’ve ended up back home


e|-------4---------|-----------------|-------------|------------------------|
B|-------5--5---5--|-----------------|-----2-------|-------4----------------|
G|---6--------6----|-6---6-----6---6-|---2-2-2---2-|---4---4---4---4--------|
D|-----6-----------|---6---------6---|--2------2---|-----4-------4----------|
A|-4---------------|-----------------|-0-----------|-2-------2--------------|
E|-----------------|--------4--------|-------------|------------------------|
                                Sometimes feeling loved is like feeling alone


e|--------0------------|---0---0---0------|-4------0------------------------l
B|--------0--------0---|----------------0-|-5------0--0----0---0---0----0---|
G|-----1-----------1---|--------------1---|-6------1------------------------|
D|---2-----------2---2-|---------2--------|-6------2-------------2----------|
A|-----------0h2-------|-----2------------|-4------2---------2--------2-----|
E|-0-------------------|-0----------------|-0------0----0-------------------|
                                           But I want nobody but you


e|-4----0---------------------|-4-2-0---------|-4-2-0---------|-------0-----|
B|-5----0---0---0---0---0---0-|-------2---2---|-------2---2---|-------0-----|
G|-6----1---------------------|---------------|---------------|----1----1--1|
D|-6----2-------------2-------|---------------|---------------|--2--------2-|
A|-4----2---------2-------2---|-0-------0---0-|-0-------0---0-|-------------|
E|------0-----0---------------|---------------|---------------|-0-----------|
   And I love nobody but you   I know it’s hard to forget what an unfaithful wreck that I 


e|---0---0---0-----|-4-2-0---------|-4-2-0---------|-----0------------------|
B|---------------0-|-------2---2---|-------2---2---|-----0------------------|
G|-------------1---|---------------|---------------|---1---1--1----1--------|
D|---------2-------|---------------|---------------|--2------2---2---2--2—-2|
A|-----2-----------|-0-------0---0-|-0-------0---0-|------------------------|
E|-0---------------|---------------|---------------|-0----------0------0--1-|
   have been    To say that I’m yours with my clothes on the floor and my head full of gin


e|------------------|-------------------|---------0---------|-------4-------|
B|--------2---------|--------4----------|---------0---------|-------5--5---5|
G|----2---2---2---2-|---4----4----4---4-|---1---------1---1-|---6--------6--|
D|------4-------4---|-----4---------4---|------2--------2---|-----6---------|
A|----------4-------|-2---------2-------|-------------------|-4-------------|
E|-2----------------|-------------------|-0----------0------|---------------|
   Your back’s been turned and I’ve been starting to learn that the only way back in


e|---------------|-------------|-----------------|--------0-----------------|
B|---------------|-----2-------|-------4---------|--------0--------0--------|
G|-6---6-----6---|---2-2-2---2-|---4---4---4---4-|-----1-----------1--------|
D|---6-----6---6-|--2------2---|-----4-------4---|---2-----------2---2------|
A|---------------|-0-----------|-2-------2-------|-----------0h2------------|
E|-------4-------|-------------|-----------------|-0------------------------|
                    Is to let you let me love you again


e|-----------------|-4-2-0-----------|-4-2-0-----------|-------0------------|
B|---0---0---0---0-|--------2---2----|-------2----2----|-------0------------|
G|-----------------|-----------------|-----------------|-----1----1---1-----|
D|---------2-------|-----------------|-----------------|---2--------2-------|
A|-----2-------2---|-0--------0---0--|-0-------0-----0-|--------------------|
E|-0---------------|-----------------|-----------------|-0------------------|
     Well I mean when I say that I’m done with those days, I’ll put an end to


e|---0---0---0------|-4-2-0-----------|-4-2-0-----------|----------0--------|
B|----------------0-|--------2---2----|-------2----2----|----------0--------|
G|--------------1---|-----------------|-----------------|-----1----1--------|
D|---------2--------|-----------------|-----------------|---2------2--------|
A|-----2------------|-0--------0---0--|-0-------0-----0-|----------2--------|
E|-0----------------|-----------------|-----------------|-0--------0--------|
   All the words that come out that fill your heart with doubt, I’ll put an end to…


| /  slide up
| \  slide down
| h  hammer-on
| p  pull-off
| ~  vibrato
| +  harmonic
| x  Mute note
===============================================================================


Suggest correction
Give kudos to tab author, rate the tab!
1 2 3 4 5
comments
print report bad tab
1 comment total.
0 reply
oaw19 82 Jul 21, 2009 03:17 PM

my apologies.. the the lines separating measures turned up as 1's on the tab on here.

guest
You may want to rate the tab now too:
select rating
Wanna post a correction for this tab? Suggest correction