Oops, an error
Loading. Please wait.

Honestly - All We Are Tab

21 views 1 this week
no commentswrite comment
1 2 3 4 5
please rate
add to favorites
launch autoscroll
font size
0
reset
how to read this tab
guitar tuner
Tab Pro tools
  • play this tab
  • loop segment
  • change instrument
  • show fretboard
  • metronome
Autoscroll
slow
fast
+/-
esc
set tempo
stop
Contributor
Difficulty
intermediate
Tabbed & Arranged by: Josh Daley

Tuning: E A D G B E (Both guitars)

Guitar 1: Tablature (Electric)
Guitar 2: Tablature (Electric)



Intro:

   Guitar 1 & 2:

   --7---\4---/7----\4---\2--\0--/4-2-0--|
   --0----0----0-----0----0---0----------|
   --9---\6---/9----\6---\4--\2----------|
   --9---\6---/9----\6---\4--\2----------|
   --------------------------------------|
   --------------------------------------|

   -/7---\4---/7----\4---\2--\0--/4-2-0/7--|
   --0----0----0-----0----0---0------------|
   -/9---\6---/9----\6---\4--\2------------|
   -/9---\6---/9----\6---\4--\2------------|
   ----------------------------------------|
   ----------------------------------------|



Verse:

   Guitar 1:

   -----------------0----|
   -----------------0----|
   --7----6----4----4----|
   --7----6----4----2----|
   --9----4----2----4----|
   ----------------------|

   -------------------------|
   -------------------------|
   --7----6----4----4--4-4--|
   --7----6----4----2--2-2--|
   --9----4----2----4--4-4--|
   -------------------------|



Pre-chorus:

   Guitar 1:

   --0-x-0--|
   --0-x-0--|
   --4-x-4--| x4
   --2-x-2--|
   --4-x-4--|
   ----x----|



1st Chorus:

   Guitar 1:

   --0------0------0----0---0---|
   --0------0------0----0---0---|
   --9-^8^9-9-^8^9-8----6--/8---| x2
   --9------9------9----7--/9---|
   --7------7------9----7--/9---|
   ----------------7----5--/7---|

   Guitar 2:

   --7------------------------------|
   --------9-----9--9---------------|
   ----9-----9--------9---11-----8--| x2
   ------9-----9--------9----9------|
   ----------------------------7----|
   ---------------------------------|



Interlude:

   Guitar 1:

   -/7---\4---/7----\4---\2--\0-2/4-2-0/7--|
   --0----0----0-----0----0---0------------|
   -/9---\6---/9----\6---\4--\2------------|
   -/9---\6---/9----\6---\4--\2------------|
   ----------------------------------------|
   ----------------------------------------|



2nd Chorus:

   Guitar 1:

   --0------0------0----0---0---|
   --0------0------0----0---0---|
   --9-^8^9-9-^8^9-8----6--/8---| x2
   --9------9------9----7--/9---|
   --7------7------9----7--/9---|
   ----------------7----5--/7---|

   Guitar 2:

   --7------------------------------|
   --------9-----9--9---------------|
   ----9-----9--------9---11-----8--|
   ------9-----9--------9----9------|
   ----------------------------7----|
   ---------------------------------|

   --7--------------------------------|
   --------9-----9--------------------|
   ----9-----9------------------------|
   ------9-----9-----6b7b6~-2--6-4-2--|
   -----------------------------------|
   -----------------------------------|

   --7------------------------------|
   --------9-----9--9---------------|
   ----9-----9--------9---11-----8--|
   ------9-----9--------9----9------|
   ----------------------------7----|
   ---------------------------------|

   --7------------------------------|
   --------9-----9--9---------------|
   ----9-----9--------9---11-----8--|
   ------9-----9--------9----9------|
   ----------------------------7----|
   ---------------------------------|



Bridge:

   Guitar 1:

   ----------------------|
   ----------------------|
   ----------------------| x3
   --9-------------------|
   --7----9---11----9----|
   -------7----9----7----|

   --0------0------0----0---0---|
   --0------0------0----0---0---|
   --9-^8^9-9-^8^9-8----6--/8---| x2
   --9------9------9----7--/9---|
   --7------7------9----7--/9---|
   ----------------7----5--/7---|

   Guitar 2:

   --7------------------------------|
   --------9-----9--9---------------|
   ----9-----9--------9---11-----8--| x5
   ------9-----9--------9----9------|
   ----------------------------7----|
   ---------------------------------|

   ----------------0---0-----|
   ------------------0----0--|
   --8b9r8~-4--2/4-----------|
   --------------------------|
   --------------------------|
   --------------------------|

   ----------------0---------|
   ------------------0----0--|
   --8b9r8~-4--2/4-----------|
   --------------------------|
   --------------------------|
   --------------------------|



Breakdown:

   Guitar 2:

   ------------------------------------|
   ---------------------------7--------|
   ------9---8---9--------8-------8----|
   ----9---9---9---9--------9---9---9--|
   --7------------------9--------------|
   -------------------7----------------|

   ------------------------x-x-x-x--|
   ------5--------5---0----x-x-x-x--|
   --------8----------8----x-x-x-x--|
   -------------7-----9----x-x-x-x--|
   ----7--------------9----x-x-x-x--|
   --5----------------7----x-x-x-x--|



3rd Chorus:

   Guitar 1:

   --0------0------0----0---0---|
   --0------0------0----0---0---|
   --9-^8^9-9-^8^9-8----6--/8---| x2
   --9------9------9----7--/9---|
   --7------7------9----7--/9---|
   ----------------7----5--/7---|

   Guitar 2:

   --7------------------------------|
   --------9-----9--9---------------|
   ----9-----9--------9---11-----8--| x2
   ------9-----9--------9----9------|
   ----------------------------7----|
   ---------------------------------|



Outro:

   Guitar 1 & 2:

   --7---\4---/7----\4---\2--\0--/4-2-0--|
   --0----0----0-----0----0---0----------|
   --9---\6---/9----\6---\4--\2----------|
   --9---\6---/9----\6---\4--\2----------|
   --------------------------------------|
   --------------------------------------|

   -/7---\4---/7----\4---\2--\0--/4-2-0-----|
   --0----0----0-----0----0---0-------------|
   -/9---\6---/9----\6---\4--\2---------9---| (Let Ring)
   -/9---\6---/9----\6---\4--\2---------9---|
   -------------------------------------7---|
   -----------------------------------------|
comments
We did not receive enough feedback on this tab! Please rate:
print report bad tab
1 2 3 4 5
I want to post or [tab]
guest
You may want to rate the tab now too:
select rating
Please do not post tabs as comments. Select "correction" instead!