Oops, an error
Loading. Please wait.

Honningbarna - Borgerskapets Utakknemlige Snner Bass Tab

583 views 1 this week
no commentswrite comment
1 2 3 4 5
accurate
x 3
add to favorites
launch autoscroll
font size
0
reset
guitar tuner
Autoscroll
slow
fast
+/-
esc
set tempo
stop
Help us to improve Ultimate-Guitar.com Take our survey!
×
Author
Difficulty
intermediate
Intro:
G|----------------------------------------------------------------|
D|----------------------------------------------------------------|
A|0---0---0-0-0-0-0-0-0-0-5-5-5-3---0-0---0-0-0-0-0-0-0-0-5-5-5-3-|
E|----------------------------------------------------------------|

G|----------------------------------------------------------------|
D|----------------------------------------------------------------|
A|--0-0---0-0-0-0---------5-5-5-3---0-0---0-0-0-0-0-0-0-0-0-0-0-0-|
E|----------------0---0-------------------------------------------|

Verse:
Same as intro, but the second time, play:
G|----------------------------------------------------------------|
D|----------------------------------------------------------------|
A|0---0---0-0-0-0-0-0-0-0-5-5-5-3---0-0---0-0-0-0-0-0-0-0-5-5-5-3-|
E|----------------------------------------------------------------|

G|----------------------------------------------------------------|
D|----------------------------------------------------------------|
A|--0-0---0-0-0-0---------5-5-5-3---0-0---0-0-0-0-1---2---3---4---|
E|----------------0---0-------------------------------------------|

Chorus:
G|----------------------------------------------------------------|
D|----------------------------------------------------------------|
A|5---5---5-7---2---2-2-2-2-2-2-2-5---5---5-7---2---2-2-2-2-2-2-2-|
E|----------------------------------------------------------------|

G|----------------------------------------------------------------|
D|5---5---5-----------------------5---5---5-----------------------|
A|----------5---7---7-7-7-7-7-7-7-----------5---7---7-7-7-6-6-6-6-|
E|----------------------------------------------------------------|

G|---------------------------------------------------------------|
D|---------------------------------------------------------------|
A|5-5-5-5-4-4-4-4-3----------------------------------------------|
E|---------------------------------------------------------------|

Ending:
G|---------------------------------------------------------------|
D|---------------------------------------------------------------|
A|0-------/12--------0-------------------------------------------|
E|---------------------------------------------------------------|


Order:
Intro X2
Verse X2
Chorus
Verse X2
Chorus
Verse X2
Chorus
Verse
Ending

| /  slide up
| \  slide down
| h  hammer-on
| p  pull-off
| ~  vibrato
| +  harmonic
| x  Mute note
Suggest correction
What's this?
You can suggest a correction to this tab. Community and Mods will review your correction and vote to approve or reject it.
comments
We did not receive enough feedback on this tab! Please rate:
print report bad tab
1 2 3 4 5
guest
You may want to rate the tab now too:
select rating
Please do not post tabs as comments. Select "correction" instead!