Oops, an error
Loading. Please wait.

Hooded Fang - Land Of Giants Bass Tab

280 views 1 this week
no commentswrite comment
1 2 3 4 5
3 more votes to show rating
add to favorites
launch autoscroll
font size
0
reset
guitar tuner
Autoscroll
slow
fast
+/-
esc
set tempo
stop
Help us to improve Ultimate-Guitar.com Take our survey!
×
Author
The first part repeats for almost the whole song.
 Remeber to damp the A string when you go to play the F.

Verses
-------------------------------1-1-1-1-1-1111--|
-3-3-3-3-3-3333-0-0-0-0-0-0000-----------------|
-----------------------------------------------|
-----------------------------------------------|

In the Land of           Giants
---------------1~-------------|
-0~---------------------------|
------------------------------|
------------------------------|

There's a                saying
---------------1~-------------|
-0~---------------------------|
------------------------------|
------------------------------|

Sometimes it's         better to hold than
------------------------------|
-3~------------0~-------------|
------------------------------|
------------------------------|

Keep on                    playing
---------------1~-------------|
-0~---------------------------|
------------------------------|
------------------------------|
Suggest correction
Give kudos to tab author, rate the tab!
1 2 3 4 5
comments
print report bad tab
guest
You may want to rate the tab now too:
select rating
Wanna post a correction for this tab? Suggest correction