Oops, an error
Loading. Please wait.

Hopes Die Last - Thanks For Coming Tab

1,542 views 1 this week
no commentswrite comment
1 2 3 4 5
please rate
add to favorites
launch autoscroll
font size
0
reset
how to read this tab
guitar tuner
Autoscroll
slow
fast
+/-
esc
set tempo
stop
Help us to improve Ultimate-Guitar.com Take our survey!
×
Contributor
Tuning
D A D G B E
hopes die last - thanks for coming

intro:

gtr. 1:

e|--------------------|
b|--------------------|
g|------3333-3333-333-|
d|-000--3333-3333-333-|
a|-000--1111-1111-111-|
d|-000----------------|

        ..   ..   ..


gtr. 2:


e|------------------|
b|-5----------------|
g|-7--3333-3333-333-|
d|-0--3333-3333-333-|
a|-0--1111-1111-111-|
d|------------------|

      ..   ..   ..


It's when i seemed to lose the only thing I care


gtr. 1:


e|------------------------------|
b|------------------------------|
g|----------------3333-3333-333-|
d|-00-00-00-00-0--3333-3333-333-|
a|-00-00-00-00-0--1111-1111-111-|
d|-00-00-00-00-0----------------|

                  ..   ..   ..


gtr. 2:


e|------------------|
b|-5----------------|
g|-7--3333-3333-333-|
d|-0--3333-3333-333-|
a|-0--1111-1111-111-|
d|------------------|

      ..   ..   ..


I realized and saw its light in the night

gtr. 1:


e|------------------------------|
b|------------------------------|
g|----------------3333-3333-333-|
d|-00-00-00-00-0--3333-3333-333-|
a|-00-00-00-00-0--1111-1111-111-|
d|-00-00-00-00-0----------------|

                  ..   ..   ..


gtr. 2:


e|------------------|
b|-5----------------|
g|-7--3333-3333-333-|
d|-0--3333-3333-333-|
a|-0--1111-1111-111-|
d|------------------|

      ..   ..   ..


I was beside a sparkling source of life

gtr. 1:


e|------------------------------|
b|------------------------------|
g|----------------3333-3333-333-|
d|-00-00-00-00-0--3333-3333-333-|
a|-00-00-00-00-0--1111-1111-111-|
d|-00-00-00-00-0----------------|

                  ..   ..   ..


gtr. 2:


e|------------------|
b|-5----------------|
g|-7--3333-3333-333-|
d|-0--3333-3333-333-|
a|-0--1111-1111-111-|
d|------------------|

      ..   ..   ..


but sometimes I still saw my death behind her smile

gtr. 1:


e|------------------------|
b|------------------------|
g|-------3333-------------|
d|-0000--3333--0000--5555-|
a|-0000--1111--0000--5555-|
d|-0000--------0000--5555-|

gtr. 2:


e|-------------------------------|
b|-------------------------------|
g|-7/10--9/12--10--7/10--9/12--5-|
d|-x/x---x/x---x---x/x---x/x---x-|
a|-5/8---7/10--8---5/8---7/10--3-|
d|-------------------------------|


I'll be better with no remorse
but can I stop seeing you everywhere?

gtr. 1:


e|------------------------|
b|------------------------|
g|-------3333-------------|
d|-0000--3333--0000--5555-|
a|-0000--1111--0000--5555-|
d|-0000--------0000--5555-|

   ....  ....  ....


gtr. 2:


e|---------------------------------------------------|
b|---------------------------------------------------|
g|----------------------------------------------5h6p-|
d|-333--222--555--22222222--333--222--555--2222------|
a|---------------------------------------------------|
d|---------------------------------------------------|

   ...  ...  ...  ........  ...  ...  ...  ....


e|-------------------------------|
b|-------------------------------|
g|-------------------------------|
d|-333--222--555--22222222--5555-|
a|--------------------------5555-|
d|--------------------------5555-|

   ...  ...  ...  ........


run away, things are getting worst
can I stop beliving u'll be there

chorus:


gtr. 1:


e|------------------------------|
b|------------------------------|
g|-------3333--7777--3333-------|
d|-0000--3333--7777--3333--5555-|
a|-0000--1111--5555--1111--5555-|
d|-0000--------------------5555-|

gtr.2:


e|-----------------|
b|-----------------|
g|-10-9----9-9h10p-|    2x
d|------10---------|
a|-----------------|
d|-----------------|


e|------------|
b|------------|
g|-------10-9-|     2x
d|-12-10------|
a|------------|
d|------------|

Lies.. I used to understand them
all this time, you've never comprehend

gtr. 1:

e|--------------------|
b|--------------------|
g|------3333-3333-333-|
d|-000--3333-3333-333-|
a|-000--1111-1111-111-|
d|-000----------------|

        ..   ..   ..


gtr. 2:


e|------------------|
b|-5----------------|
g|-7--3333-3333-333-|
d|-0--3333-3333-333-|
a|-0--1111-1111-111-|
d|------------------|

      ..   ..   ..


how do you feel? I don't believe it's real

gtr. 1:


e|------------------------------|
b|------------------------------|
g|----------------3333-3333-333-|
d|-00-00-00-00-0--3333-3333-333-|
a|-00-00-00-00-0--1111-1111-111-|
d|-00-00-00-00-0----------------|

                  ..   ..   ..


gtr. 2:


e|------------------|
b|-5----------------|
g|-7--3333-3333-333-|
d|-0--3333-3333-333-|
a|-0--1111-1111-111-|
d|------------------|

      ..   ..   ..


It seems to be the sweetest thing
when the bitter ends

gtr. 1:


e|------------------------|
b|------------------------|
g|-------3333-------------|
d|-0000--3333--0000--5555-|
a|-0000--1111--0000--5555-|
d|-0000--------0000--5555-|

gtr. 2:


e|------------------------------|
b|------------------------------|
g|-7/10--9/12-10--7/10--9/12--5-|
d|-x/x---x/x--x---x/x---x/x---x-|
a|-5/8---7/10-8---5/8---7/10--3-|
d|------------------------------|

I'll go crazy for no reason
'cause I can't stop that voice inside my head

gtr. 1:


e|------------------------|
b|------------------------|
g|-------3333-------------|
d|-0000--3333--0000--5555-|
a|-0000--1111--0000--5555-|
d|-0000--------0000--5555-|

   ....  ....  ....


gtr. 2:


e|---------------------------------------------------|
b|---------------------------------------------------|
g|----------------------------------------------5h6p-|
d|-333--222--555--22222222--333--222--555--2222------|
a|---------------------------------------------------|
d|---------------------------------------------------|

   ...  ...  ...  ........  ...  ...  ...  ....


e|-------------------------------|
b|-------------------------------|
g|-------------------------------|
d|-333--222--555--22222222--5555-|
a|--------------------------5555-|
d|--------------------------5555-|

   ...  ...  ...  ........


anyway, your hands are getting cold
so runaway before I start to burn

chorus:


gtr. 1:


e|------------------------------|
b|------------------------------|
g|-------3333--7777--3333-------|
d|-0000--3333--7777--3333--5555-|
a|-0000--1111--5555--1111--5555-|
d|-0000--------------------5555-|

gtr.2:


e|-----------------|
b|-----------------|
g|-10-9----9-9h10p-|    2x
d|------10---------|
a|-----------------|
d|-----------------|


e|------------|
b|------------|
g|-------10-9-|     2x
d|-12-10------|
a|------------|
d|------------|

Lies.. I used to understand them
all this time, you've never comprehend

gtr. 1:


e|-------------------|
b|-------------------|
g|-------------------|    2x
d|-88888--1010101010-|
a|-88888--1010101010-|
d|-88888--1010101010-|


e|------|
b|------|
g|------|
d|--00--|
a|--00--|
d|--00--|


gtr. 2:


e|------------------|
b|------------------|
g|-7/9/10--7/12--10-|    2x
d|-x/x/x---x/x---x--|
a|-5/7/8---5/10--8--|
d|------------------|


e|------|
b|------|
g|------|
d|--00--|
a|--00--|
d|--00--|


I know why it was so hard to see me
I wonder if by now I can trust my eyes


gtr. 1 & 2:


e|--------|
b|--------|
g|--------|
d|-0000-0-|
a|-0000-0-|
d|-0000-0-|

   ....


gtr. 1 & 2:


e|--------------------|
b|----------------555-|
g|----------------777-|    2x
d|-0000-0000-0000-----|
a|-0000-0000-0000-----|
d|-0000-0000-0000-----|

   .... .... ....

e|-------|
b|-------|
g|--3-5--|
d|--3-5--|
a|--1-3--|
d|-------|

gtr. 1:


e|-----------------------------|
b|-----------------------------|
g|-----------------------------|   2x
d|-8888--10101010--7777--8888--|
a|-8888--10101010--7777--8888--|
d|-8888--10101010--7777--8888--|


so, should I stay? should I tremble and remain?
or run away.. leaving nothing more to say?

chorus:


gtr. 1:


e|------------------------------|
b|------------------------------|
g|-------3333--7777--3333-------|
d|-0000--3333--7777--3333--5555-|
a|-0000--1111--5555--1111--5555-|
d|-0000--------------------5555-|

gtr.2:


e|-----------------|
b|-----------------|
g|-10-9----9-9h10p-|    2x
d|------10---------|
a|-----------------|
d|-----------------|


e|------------|
b|------------|
g|-------10-9-|     2x
d|-12-10------|
a|------------|
d|------------|

Lies.. I used to understand them
all this time, you've never comprehend

2nd time of chorus:


gtr. 1:


e|------------------------------|
b|------------------------------|
g|-------3333--7777--3333-------|
d|-0000--3333--7777--3333--5555-|
a|-0000--1111--5555--1111--5555-|
d|-0000--------------------5555-|

gtr. 2:

e|---------------------|
b|---------------------|
g|-10--9--5--9--9/10\9-|    2x
d|-x---x--x--x--x/x-\x-|
a|-8---7--3--7--7/8-\7-|
d|---------------------|


e|--------------|
b|--------------|
g|-7--5--10--9--|     2x
d|-x--x--x---x--|
a|-5--3--8---7--|
d|--------------|


Lies.. I used to understand them
all this time, you've never comprehend

gtr. 1:


e|-------------------|
b|-------------------|
g|-------------------|    2x
d|-88888--1010101010-|
a|-88888--1010101010-|
d|-88888--1010101010-|

gtr. 2:


e|------------------|
b|------------------|
g|-7/9/10--7/12--10-|    2x
d|-x/x/x---x/x---x--|
a|-5/7/8---5/10--8--|
d|------------------|


and I know why it was so hard to see me
I wonder if by now I can trust my eyes


2nd time:


gtr. 1:


e|-------------------|
b|-------------------|
g|-------------------|    2x
d|-88888--1010101010-|
a|-88888--1010101010-|
d|-88888--1010101010-|

gtr. 2:


e|------------------|
b|------------------|
g|-7/9/10--7/12--10-|
d|-x/x/x---x/x---x--|
a|-5/7/8---5/10--8--|
d|------------------|


e|--------------------|
b|--------------------|
g|-7/9/10--12--14--17-|
d|-x/x/x---x---x---x--|
a|-5/7/8---10--12--15-|
d|--------------------|


and I know why it was so hard to see me
I wonder if by now I can trust my eyes

outro:


e|------|
b|------|
g|------|
d|--00--|
a|--00--|
d|--00--|
comments
We did not receive enough feedback on this tab! Please rate:
print report bad tab
1 2 3 4 5
I want to post or [tab]
guest
You may want to rate the tab now too:
select rating
Please do not post tabs as comments. Select "correction" instead!