Oops, an error
Loading. Please wait.

Horns Over Halos - Desperation Tab

34 views 1 this week
no commentswrite comment
1 2 3 4 5
please rate
add to favorites
launch autoscroll
font size
0
reset
how to read this tab
guitar tuner
Tab Pro tools
  • play this tab
  • loop segment
  • change instrument
  • show fretboard
  • metronome
×
Best way to learn
"Horns Over Halos - Desperation"
Autoscroll
slow
fast
+/-
esc
set tempo
stop
Contributor
Difficulty
Tuning
intermediate
B F# B E G# C#
 (Intro X3)
 --------------------------------------------------------------------|
 --------------------------------------------------------------------|
 --------------------------------------------------------------------|
 ------5-5-5-7-7-7-8-8-8-8-8-8-----4-4-4-5-5-5-7-7-7-5-5-5-4-4-4-4-4-|
 -5-5-5-----------------------4-4-4----------------------------------|
 --------------------------------------------------------------------|
 (End of Intro Riff)
 --------------------------------------------------------------------------|
 --------------------------------------------------------------------------|
 --------------------------------------------------------------------------|
 -------5-5-5--7-7-7-8-8-8-8-8-8-------------------------------------------|
 -5-5-5--------------------------------12-12-12-8-8-8-------10-10-10-7-7-7-|
 --------------------------------8-8-8----------------7-7-7----------------|
                                 . . .                . . .
(X4)
 -------------------------------------------|
 -------------------------------------------|
 -------------------------------------------|
 -------------------------------------------|
 ------555777888888----44455577755544444444-|
 -555---------------444---------------------|

 ----------------------------------------------|
 ----------------------------------------------|
 ----------------------------------------------|
 ----------------------------------------------|
 ------555777888-----121212101010---101010777--|
 -555------------888-------------777-----------|
                 ...             ...
(X3)
 -------------------------------------|
 -------------------------------------|
 -------------------------------------|
 -------------------------------------|
 -------5-7-8-7-5-5-/-4-4-4-4-4--4-4--|
 -5-5-5--5-5-5-5--5/--4-4-4-4-4--4-4--|
  . . .  . . . .        . . .    . .
 (4th time)
 -------------------------|
 -------------------------|
 -------------------------|
 -------------------------|
 -------5-7-8-7-5--/9-/-3-|
 -5-5-5--5-5-5-5---/7-/-5-|
  . . .  . . . .
 (X4)
 -----------------------------------|
 -----------------------------------|
 -----------------------------------|
 ------5-7-8-7-5--------------------|
 -5-5-5-5-5-5-5--5/-4-4-4-4-4-5-7---|
 -----------------------------------|
 . . .  . . . .     . . . .

 (X4)
 ---------------------------------------------------------|
 ---------------------------------------------------------|
 ---------------------------------------------------------|
 ---------------------------------------------------------|
 -5--5-5--8-7-5-4-4-4-------------------------------------|
 -5--5-5--8-7-5-4-4-4-8-8-8-7-7-7-5-5-5-7-7-7-5-5-5-4-4-4-|
                      . . . . . . . . . . . . . . . . . .
 (Chorus)
 (X4)
 ----------------------------------------------------------------------------|
 ----------------------------------------------------------------------------|
 ----------------------------------------------------------------------------|
 ----------------------------------------------------------------------------|
 ----------------------------------------------------------------------------|
 -555555-777777-5-7-3-333333--555555-3-5-111111-3-1-00000000000--------------|

  (X4)
  --------------------------------------------|
 ---------------------------------------------|
 ---------------------------------------------|
 ---------------------------------------------|
 ------555777888888----44455577755544444444---|
 -555---------------444-----------------------|

 ----------------------------------------------|
 ----------------------------------------------|
 ----------------------------------------------|
 ----------------------------------------------|
 ------555777888-----121212101010---101010777--|
 -555------------888-------------777-----------|
                 ...             ...

(X3)
 -------------------------------------|
 -------------------------------------|
 -------------------------------------|
 -------------------------------------|
 -------5-7-8-7-5-5-/-4-4-4-4-4--4-4--|
 -5-5-5--5-5-5-5--5/--4-4-4-4-4--4-4--|
  . . .  . . . .        . . .    . .
 (4th time)
 -------------------------|
 -------------------------|
 -------------------------|
 -------------------------|
 -------5-7-8-7-5--/9-/-3-|
 -5-5-5--5-5-5-5---/7-/-5-|
  . . .  . . . .
 (X4)
 -----------------------------------|
 -----------------------------------|
 -----------------------------------|
 ------5-7-8-7-5--------------------|
 -5-5-5-5-5-5-5--5/-4-4-4-4-4-5-7---|
 -----------------------------------|
 . . .  . . . .     . . . .


     (X4)
 ---------------------------------------------------------|
 ---------------------------------------------------------|
 ---------------------------------------------------------|
 ---------------------------------------------------------|
 -5--5-5--8-7-5-4-4-4-------------------------------------|
 -5--5-5--8-7-5-4-4-4-8-8-8-7-7-7-5-5-5-7-7-7-5-5-5-4-4-4-|
                      . . . . . . . . . . . . . . . . . .

 Solo Section will be taught in person.
comments
We did not receive enough feedback on this tab! Please rate:
print report bad tab
1 2 3 4 5
I want to post or [tab]
guest
You may want to rate the tab now too:
select rating
Please do not post tabs as comments. Select "correction" instead!