Oops, an error
Loading. Please wait.

Hostel Shower Incident - Ok Its Onga Tab

13 views 1 this week
no commentswrite comment
1 2 3 4 5
3 more votes to show rating
add to favorites
launch autoscroll
font size
0
reset
how to read this tab
guitar tuner
Autoscroll
slow
fast
+/-
esc
set tempo
stop
Help us to improve Ultimate-Guitar.com Take our survey!
×
Author
Difficulty
novice
[Intro]

Guitar 1
e|-------------------------|
B|-------------------------|
G|---------6-6-2--4-4-4----|
D|-2--6-6--6-6-2--4-4-4----|
A|-2--6-6--4-4-0--2-2-2----|
E|-0--4-4------------------|(x4)

Guitar 2
e|-------------------------|
B|-------------------------|
G|-9/8--6-6--4-4--4-4--4-4-|
D|-x/x--x-x--x-x--x-x--x-x-|
A|-7/6--4-4--2-2--2-2--2-2-|
E|-------------------------|(x4)

e|-------------------------|
B|-------------------------|
G|-1-2-2/4-2-1-------------|
D|-------------2-----------|
A|-------------------------|
E|-------------------------|

[Verse]

Guitar 1
e|-------------------------|
B|-------------------------|
G|-------------------------|
D|-------------------------|
A|----------2--4-4-0-2-----|
E|-0--4-0-4----------------|(x4)


Guitar 2
(0:21)
e|-13-12-10--8--6--5-6-8--6--5--3--1--|
B|------------------------------------|
G|------------------------------------|
D|------------------------------------|
A|------------------------------------|
E|------------------------------------|


[Bridge]

Guitar 1
(Same as Intro)
e|-------------------------|
B|-------------------------|
G|---------6-6-2--4-4-4----|
D|-2--6-6--6-6-2--4-4-4----|
A|-2--6-6--4-4-0--2-2-2----|
E|-0--4-4------------------|(x2)


[Chorus Part 1]

Guitar 1
e|-------------------------|
B|-------------------------|
G|---------6-6-2--4-4-4----|
D|-2--6-6--6-6-2--4-4-4----|
A|-2--6-6--4-4-0--2-2-2----|
E|-0--4-4------------------|(x4)


Guitar 2
e|--------------------------------------------------|
B|--------------------------------------------------|
G|-9--9-9-9-9-9/11-13-------9--9-9-9-9-9/14-13------|
D|-x--x-x-x-x-x/x--x--------x--x-x-x-x-x/x--x-------|
A|-7--7-7-7-7-7/9--11-------7--7-7-7-7-7/11-11------|
E|--------------------------------------------------|(x2)

[Chorus Part 2]

Guitar 1
e|-----------------------------------|
B|-----------------------------------|
G|-----------------------------------|
D|-----------------------------------|
A|-6-6-6-6-4-4-4-4-2-2-2-2-2-2-2-2-2-|
E|-4-4-4-4-2-2-2-2-0-0-0-0-0-0-0-0-0-|(x2)


(Bridge)

(Intro)

(Verse)

(Bridge)

(Chorus 1&2)

(Bridge x2)

(Chorus 2 only)

[Ending]

Guitar 2
e|-------------------------|
B|-------------------------|
G|-1-2-2/4-2-1-------------|
D|-------------2-----------|
A|-------------------------|
E|-------------------------|


************************************

| /  Slide up
| x  Dead note

************************************
Suggest correction
Give kudos to tab author, rate the tab!
1 2 3 4 5
comments
print report bad tab
guest
You may want to rate the tab now too:
select rating
Wanna post a correction for this tab? Suggest correction