Oops, an error
Loading. Please wait.

Hugh Wilson - Falling Away Tab

version 3
version 3

Intro

Interactive

4,063 views 6 this week
2 commentsread comments
1 2 3 4 5
accurate
x 4
add to favorites
launch autoscroll
font size
0
reset
how to read this tab
guitar tuner
Tab Pro tools
  • play this tab
  • loop segment
  • change instrument
  • show fretboard
  • metronome
×
Best way to learn
"Hugh Wilson - Falling Away"
Autoscroll
slow
fast
+/-
esc
set tempo
stop
Contributor
Hugh Wilson -  I'm falling away

Intro
0:06-0:26
        Let ring
|-------------------------|
|                         |
E-----------------------------------------------------------------------|
B---------------7------7--------0------0--------------------------------|
G--------7--7----------7--------0------0--------------------------------|
D--------x--x----------7--------0------0--2-----------------------------|
A--------5--5------5----------------------0-----------------------------|
E--7--7----------------------3-----3------------------------------------|
                             
        Let ring
|----------------------------|
|                            |
E-----------------------------------------------------------------------|
B--------------------------7------0-------------------------------------|
G-------7--7---------------7------0-------------------------------------|
D-------x--x---------------7------0-------------------------------------|
A-------5--5--5--5--5---------------------------------------------------|
E--7-7--------------------------3---------------------------------------|
              .  .  .           

        Let ring
|--------------------|
|                    |
E-----------------------------------------------------------|
B-------------------7------0--0--------0--------------------|
G-------7--7--------7------0--0--------0--------------------|
D-------x--x--------7------0--0--------0--------------------|
A-------5--5--5--5------------------------------------------|
E--7-7------------------3-------3-3-------------------------|
                                . .
        Let ring
|----------------------|
|                      |
E----------------------------------------------------------------|
B---------------------7------0-----------------------------------|
G------7--7-----------7------0-----------------------------------|
D------x--x-----------7------0-----------------------------------|
A------5--5--5--5--5---------------------------------------------|
E-7--7--------------------3--------------------------------------|
             .  .  .      

It's Just intro!
comments
print report bad tab
2 comments total.
+1 reply
kaiz_cwc wrote on December 26 2010, 07:37 am

very good

0 reply
Dimonaft wrote on December 26 2010, 11:25 am

thank you!

I want to post or [tab]
guest
You may want to rate the tab now too:
select rating
Please do not post tabs as comments. Select "correction" instead!