Oops, an error
Loading. Please wait.

Hymn - My Heavenly Father Loves Me Tab

25 views 1 this week
no commentswrite comment
1 2 3 4 5
3 more votes to show rating
add to favorites
launch autoscroll
font size
0
reset
how to read this tab
guitar tuner
Autoscroll
slow
fast
+/-
esc
set tempo
stop
Help us to improve Ultimate-Guitar.com Take our survey!
×
Author
Difficulty
Capo
intermediate
4th fret
About this tab version
This is the only version on ultimate guitar tabs therefore it cant be different. Was this info helpful? Yes No
My Heavenly Father Loves Me     Lds Children's hymn book
interpretation to tab by Lesmua Tewrast


[Verse 1,2]

   When...
e|----3----0----0----0-----3-----3---------------------------3---------------|
B|--------------------------------------3------3------3----------------------|
G|--------------------------------------0-------------------------------------|
D|---------------------------------------------------------------------------|
A|---------3-----------------------------------------------------------------|
E|--------------------------------------3------------------------------------|

e|----3-----------------------0------0---------------------------------------|
B|----------1-----1-----1------------------0---------------------------------|
G|----------0----------------------------------------------------0-----------|
D|-----------------------------------------2----------------2----------------|
A|----------3------------------------------2-----------2---------------------|
E|---------------------------------------------------------------------------|


e|---------------------------------------0------0------3---------------------|
B|----0---------------------1-----1------------------------------------------|
G|----------2----2----2------------------------------------------------------|
D|---------------------------------------------------------------------------|
A|----------0----------------------------3-----------------------------------|
E|---------------------------------------------------------------------------|

e|----3-3/5----3------1------0-----------------------------------------------|
B|-----------------------------------3------1------3-------------------------|
G|-------------------------------------------------0-------------------------|
D|---------------------------------------------------------------------------|
A|----3----------------------3-----------------------------------------------|
E|-------------------------------------------------3-------------------------|

e|----3----0----0----0-----3-----3---------------------------3---------------|
B|--------------------------------------3------3------3----------------------|
G|--------------------------------------0------------------------------------|
D|---------------------------------------------------------------------------|
A|---------3-----------------------------------------------------------------|
E|--------------------------------------3------------------------------------|

e|----3-----------------------0------0---------------------------------------|
B|----------1-----1-----1------------------0---------------------------------|
G|----------0----------------------------------------------------0-----------|
D|-----------------------------------------2----------------2----------------|
A|----------3------------------------------2-----------2---------------------|
E|---------------------------------------------------------------------------|

e|--------------------------------0------1------3------5------7----8---------|
B|----0---------0-----1-----3------------------------------------------------|
G|---------2----------------0------------------------------------------------|
D|---------------------------------------------------------------------------|
A|---------0------------------------------------3-------------------3--------|
E|--------------------------3------------------------------------------------|
                                                      
                                                       (strum)
e|---8---8-----7-----5------3------1---------------------x-------------------|
B|---------------------------------------3-------0-------1-------------------|
G|-------------------------------------------------------0-------------------|
D|---------------------------------3---------------------2-------------------|
A|-------------------3-----------------------------------3-------------------|
E|-------------------------------------------------------x-------------------|(x2)


************************************

| x   Mute
| /   Slide up

************************************
Suggest correction
Give kudos to tab author, rate the tab!
1 2 3 4 5
comments
print report bad tab
guest
You may want to rate the tab now too:
select rating
Wanna post a correction for this tab? Suggest correction