Oops, an error
Loading. Please wait.

I Just Farted - The Official Song tab

40 views 1 this week
1 commentread comment
1 2 3 4 5
2 more votes to show rating
add to favorites
×
Save as Personal and add changes to this tab that will be seen only by you. Learn more ›
×
You can save this tab as Personal to edit and correct it or add notes. All changes will be seen only by you. Learn more »
launch autoscroll
font size
0
reset
how to read this tab
guitar tuner
edit
Autoscroll
slow
fast
+/-
esc
set tempo
stop
Author
Difficulty
Its very basic, just play an A moll and that will do the trick with just some adds to it

[Intro]
         A
e|------------------------|------------0--------------------------------|
B|------------0h1-0-------|----------1----------------------------------|
G|-------2----------2-----|--------2------------------------------------|
D|-----2---2----------2---|------2--------------------------------------|
A|---0--------------------|----0----------------------------------------|
E|------------------------|---------------------------------------------|


with singing:
    I just farted~                in the living room
e|------------------------|---------------------------------------------|
B|------------0h1-0-------|------------0h1-0----------------------------|
G|-------2----------2-----|--------2---------2--------------------------|
D|-----2---2----------2---|------2---2---------2------------------------|
A|---0--------------------|---------------------------------------------|
E|------------------------|----3----------------------------------------|

  when this girl im dating       went to grab something from
      was really great               the other room, oooh....
e|------------------------|---------------------------------------------|
B|------------0h1-0-------|------------0h1-0---0------------------------|
G|-------2----------2-----|--------2---------2--------------------------|
D|-----2---2----------2---|------2---2----------------------------------|
A|------------------------|---------------------------------------------|
E|---1--------------------|----0----------------------------------------|

  ....no! i just farted again this time with my mouth ----> just repeat the tabs till: 
 
  cause you´re never supposed
  to rhyme a word with the     exact same word
e|----------------------------|-----------------------------------------|
B|------------0h1-0-----------|----0----0-------------------------------|
G|-------2----------2---------|----1--1---------------------------------|
D|-----2---2----------2-------|-----------------------------------------|
A|----------------------------|-----------------------------------------|
E|---1------------------------|-----------------------------------------|
 

************************************

| h  Hammer-on
| ~  Vibrato

************************************
Suggest correction
Creating personal tab
Creating personal tab
You can edit any tab online and save it as your Personal.

You can edit, replace or remove any tab part or add personal notes – all changes will be seen only by you.

Personal tabs can be accessed anytime from any device, even offline.
Learn more »
Give kudos to tab author, rate the tab!
1 2 3 4 5
comments
print report bad tab
1 comment total.
0 reply
Hanybal 11 Feb 21, 2017 06:15 PM

i think the last part with the "exact same word" is wrong, but i believe that you guys can find it out and correct it for me

guest
You may want to rate the tab now too:
select rating
Wanna post a correction for this tab? Suggest correction