Oops, an error
Loading. Please wait.

I See Stars - Big Bad Wolf intro tab

version 1
version 1

Intro

2,006 views 1 this week
2 commentsread comments
1 2 3 4 5
2 more votes to show rating
add to favorites
×
Save as Personal and add changes to this tab that will be seen only by you. Learn more ›
×
You can save this tab as Personal to edit and correct it or add notes. All changes will be seen only by you. Learn more »
launch autoscroll
font size
0
reset
how to read this tab
guitar tuner
edit
Autoscroll
slow
fast
+/-
esc
set tempo
stop
------------------------------------|
-13p10------------------------10h13-|
-------10p0-12p0-10s12---10h12------|
-----------------------12-----------|
------------------------------------|
------------------------------------|


------------------------------------|
-13p10------------------------------|
-------10p0-12p0-10s12--------------|     (both x4)
-----------------------12-----------|
------------------------------------|
------------------------------------|

--------------------------------------------------------------------------]
--------------------------------------------------------------------------]
--14-------15------12-------10---------14------15-------17-------19-------]
---x--(x8)--x-(x8)--x--(x8)-x---(x8)----x--(x8)--x-(x8)--x-(x8)---x-(x5)--]
--12-------13------10-------8----------12------13-------15-------18-------]
--------------------------------------------------------------------------]


--------------------15p13h17p13-15p13-15p13---13--------13--------13--13-----|
--------------------------------------------15---(x4)-13---(x8)-15--17-------|(x8)
-----------------------------------------------------------------------------|
0--0--0--00000---------------------------------------------------------------|
0--0--0--00000--(x2)---------------------------------------------------------|
0--0--0--00000---------------------------------------------------------------|

----------------------------------------------------------{X2}--------------|
----------------------------------------------------------------------------|
-10-------9------12-------10--------14--------17----------------------------|
-x--(x4)--x-(x4)--x--(x4)-x---(x4)---x--(x8)---x--(x8)----------------------|
-8--------7------10-------8---------12--------15----------------------------|
----------------------------------------------------------------------------|


------------------------------------------------{X3}------------------------|
----------------------------------------------------------------------------|
-14-x--14-14-14/--12-12---14-x-14-14-14/-10-10-----14-x-14-14-14/-12-12-----|
--x-x---x--x--x/---x--x----x-x--x--x--x/--x-x-------x-x--x--x--x/--x--x-----|
-12-x -12-12-12/--10-10---12-x-12-12-12/--8-8------12-x-12-12-12/-10-10-----|
----------------------------------------------------------------------------|
^^^^^^^^^^^^^^^^^^^^^^^^^^^^^^^^^^^^^^^^^^^^^^^^^^^^^^^Ending to this part^
----------------------------------------------------------------------------|
----------------------------------------------------------------------------|
----------------------------------------------------------14p12-10h12-17~~--|
----------------------------------------------------------------------------|
----------------------------------------------------------------------------|
----------------------------------------------------------------------------|

http://www.youtube.com/watch?v=gFBiCXnU9Mc&feature=related
i used this video to help tab..and the intro to the song on their myspace.


I'll Finish The End Later This Weekend

            
            
Suggest correction
Creating personal tab
Creating personal tab
You can edit any tab online and save it as your Personal.

You can edit, replace or remove any tab part or add personal notes – all changes will be seen only by you.

Personal tabs can be accessed anytime from any device, even offline.
Learn more »
Give kudos to tab author, rate the tab!
1 2 3 4 5
comments
print report bad tab
2 comments total.
0 reply
kabisote 10 Sep 12, 2008 08:21 PM

can u tab the "the common hours" by i see stars?!

0 reply
zelgaldiz 16 Jun 10, 2009 04:10 AM

hmmm... just wondering when will u finish this tab? looking forward for that tnx in advanced!!!!

guest
You may want to rate the tab now too:
select rating
Wanna post a correction for this tab? Suggest correction