Oops, an error
Loading. Please wait.

Idols Fall - The Fizz Of Rootbeer Tab

74 views 1 this week
no commentswrite comment
1 2 3 4 5
3 more votes to show rating
add to favorites
launch autoscroll
font size
0
reset
how to read this tab
guitar tuner
Autoscroll
slow
fast
+/-
esc
set tempo
stop
Help us to improve Ultimate-Guitar.com Take our survey!
×
Author
Idols Fall
The Fizz Of Rootbeer tab

This is right because I'm the one who wrote the song
Drop C tuning

Intro A

Lead Guitar (clean) x4              |After 4 times
                                    |
d-----------------------------------|---------------------------|
a---6---6---6---6---6---6---6---6---|--6~~~~--------------------|
f--9-9-9-9-9-9-9-9-9-9-9-9-9-9-9-9--|-9-------------------------|
c-0---0---0---0---8---8---7---7-----|-0-------------------------|
g-----------------------------------|-0-------------------------|
c-----------------------------------|-0-------------------------|

Rhythm Guitar (distortion) x2 (comes in after 2x of lead guitar)

d---------------------------------------------------------------|
a---------------------------------------------------------------|
f---------------------------------------------------------------|
c-0~~~~~~~~~~~~~~-8~~~~~~~--7~~~~~~~----------------------------|
g-0~~~~~~~~~~~~~~-8~~~~~~~--7~~~~~~~----------------------------|
c-0~~~~~~~~~~~~~~-8~~~~~~~--7~~~~~~~----------------------------|


Intro B (heavy distortion)x2

Lead Guitar

                            After 4x
d--------------------------|------------------------------------|
a--------------------------|------------------------------------|
f--------------------------|------------------------------------|
c-----------------------x4-|-3333-1111--------------------------|
g-----1p0--3p0--6p0-5p0----|-3333-1111--------------------------|
c-0000---0---000-----------|-3333-1111--------------------------|

Rhythm Guitar

                            After 4x
d--------------------------|------------------------------------|
a--------------------------|------------------------------------|
f-----------------x4-------|------------------------------------|
c-0000---0---000-----------|-3333-1111--------------------------|
g-0000---0---000-----------|-3333-1111--------------------------|
c-0000---0---000-----------|-3333-1111--------------------------|


Intro C (both guitars heavy distortion)x2

                              After 4x
d-----------------------------|---------------------------------|
a---------------------------x4|---------------------------------|
f-----------------------------|-88888888-77777777---------------|
c-0000-1p0-0-3p0-000-6p0-5p0--|-66666666-55555555---------------|
g-0000-1p0-0-3p0-000-6p0-5p0--|-66666666-55555555---------------|
c-0000-1p0-0-3p0-000-6p0-5p0--|-66666666-55555555---------------|


Pre-verse x1 (both guitars)

d---------------------------------------------------------------|
a---------------------------------------------------------------|
f-8-88--7-------------------------------------------------------|
c-x-xx--x-------------------------------------------------------|
g-6-66--5-----(pick slide down)---------------------------------|
c-0-00--0----\--------------------------------------------------|


Verse 1A (both guitars x2)

d---------------------------------------------------------------|
a---------------------------------------------------------------|
f---------------------------------------------------------------|
c---------------------------------------------------------------|
g-000-00-000-0-0~-000-0-000-000--000-00-000-0-0~-000-0-000-000--|
c-000-00-000-0-0~-000-0-000-000--000-00-000-0-0~-000-0-000-000--|

d---------------------------------------------------------------|
a---------------------------------------------------------------|
f---------------------------------------------------------------|
c---------------------------------------------------------------|
g-333-33-333-3-3---111-11-111--1~~------------------------------|
c-333-33-333-3-3~--111-11-111-----------------------------------|

Verse 1B

Lead Guitar (heavy distortion) x2


d---------------------------------------------------------------|
a---------------------------------------------------------------|
f---------------------------------------------------------------|
c---------------------------------------------------------------|
g-00-000-000-0-0~-000-0-5-7-8--000-00-000-0-0~-000-0-5-7-8------|
c-00-000-000-0-0~-000-0--------000-00-000-0-0~-000-0------------|

d---------------------------------------------------------------|
a---------------------------------------------------------------|
f----------------------------------------------------9~~--------|
c-------------------8-7-------------------------8-7-------------|
g-88-888-888-8-8~--------10h12--77-777-777-7-7~-----------------|
c-88-888-888-8-8~--8-8-8--------77-777-777-7-7~7-7-7------------|

Rhythm Guitar x2

d------------------------------------------------------------------|
a------------------------------------------------------------------|
f------------------------------------------------------------------|
c------------------------------------------------------------------|
g-00-000-000-0-0~-000-0-000-000------000-00-000-0-0~-000-0-000-000-|
c-00-000-000-0-0~-000-0-000-000------000-00-000-0-0~-000-0-000-000-|

d----------------------------------------------------------------------|
a----------------------------------------------------------------------|
f--------------------------------------------------------------9~~~----|
c----------------------------------------------------------------------|
g-88-888-888-8-8~-888-8-888-888------777-77-777-7-7~-777-7-777---------|
c-88-888-888-8-8~-888-8-888-888------777-77-777-7-7~-777-7-777---------|


Pre-Chorus

Lead Guitar (heavy distortion) x1

d------------------------------------------------------------------|
a------------------------------------------------------------------|
f--------------------------------------------9-9-10-9-10-9-10-9-10-|
c---------------8-7--------------------12-10-----------------------|
g------5-8---------------8h10----12-10-----------------------------|
c---0-0-0--0-0-0-0-0-0-0------8-8--8--8--8--8-8--------------------|

d-----------------------------------------------------------------|
a-----------------------------------------------------------------|
f-----------------------------------------------------------------|
c---------------8-7-----------88888888--7-7-7---------------------|
g------5-8---------------8h10-88888888--7-7-7---------------------|
c---0-0-0--0-0-0-0-0-0-0------88888888--7-7-7---------------------|


Rhythm Guitar (heavy distortion) x2

                                      End of 2nd time
d-------------------------------------|-----------------------------|
a-------------------------------------|-----------------------------|
f-------------------------------------|-----------------------------|
c-------------------------------------|-7-7-7-----------------------|
g-0000000000000000--8888888888888888--|-7-7-7-----------------------|
c-0000000000000000--8888888888888888--|-7-7-7-----------------------|


Chorus (heavy distortion, both guitars) x2

(Listen for strumming pattern) (only root chords are shown)
d-----------------------------------------------------------------|
a-----------------------------------------------------------------|
f--------10-9-10-12-10-9------------------------------------------|
c-0-8-7--x--x-x--x--x--x--0-8-7--5-3------------------------------|
g-0-8-7--8--7-8--10-8--7--0-8-7--5-3------------------------------|
c-0-8-7-------------------0-8-7--5-3------------------------------|


Verse 2A (both guitars x2)

d---------------------------------------------------------------|
a---------------------------------------------------------------|
f---------------------------------------------------------------|
c---------------------------------------------------------------|
g-000-00-000-0-0~-000-0-000-000--000-00-000-0-0~-000-0-000-000--|
c-000-00-000-0-0~-000-0-000-000--000-00-000-0-0~-000-0-000-000--|

d---------------------------------------------------------------|
a---------------------------------------------------------------|
f---------------------------------------------------------------|
c---------------------------------------------------------------|
g-333-33-333-3-3---111-11-111--1~~------------------------------|
c-333-33-333-3-3~--111-11-111-----------------------------------|

Breakdown x4

d---------------------------------------------------------------|
a---------------------------------------------------------------|
f---------------------------------------------------------------|
c-00-00-00-00000000--00-00-00-1~--------------------------------|
g-00-00-00-00000000--00-00-00-1~--------------------------------|
c-00-00-00-00000000--00-00-00-1~--------------------------------|


Chorus 2 (heavy distortion, both guitars) x2

(Listen for strumming pattern) (only root chords are shown)
d-----------------------------------------------------------------|
a-----------------------------------------------------------------|
f--------10-9-10-12-10-9------------------------------------------|
c-0-8-7--x--x-x--x--x--x--0-8-7--5-3------------------------------|
g-0-8-7--8--7-8--10-8--7--0-8-7--5-3------------------------------|
c-0-8-7-------------------0-8-7--5-3------------------------------|


Bridge 1A x4

d---------------------------------------------------------------------------|
a---------------------------------------------------------------------------|
f---------------------------------------------------------------c-0~--1-0~--|
g-0~--1-0~------------------------------------------------------------------|
c-0~--1-0~------------------------------------------------------------------|

Bridge 1B x8

d-----------------------------------------|
a-----------------------------------------|
f-----------------------------------------|
c-0-1--0-3-2-1--0-1--3-6-5-3--------------|
g-0-1--0-3-2-1--0-1--3-6-5-3--------------|
c-0-1--0-3-2-1--0-1--3-6-5-3--------------|


Verse B Lead Guitar (heavy distortion) x2


d---------------------------------------------------------------|
a---------------------------------------------------------------|
f---------------------------------------------------------------|
c---------------------------------------------------------------|
g-00-000-000-0-0~-000-0-5-7-8--000-00-000-0-0~-000-0-5-7-8------|
c-00-000-000-0-0~-000-0--------000-00-000-0-0~-000-0------------|

d---------------------------------------------------------------|
a---------------------------------------------------------------|
f----------------------------------------------------9~~--------|
c-------------------8-7-------------------------8-7-------------|
g-88-888-888-8-8~--------10h12--77-777-777-7-7~-----------------|
c-88-888-888-8-8~--8-8-8--------77-777-777-7-7~7-7-7------------|

Rhythm Guitar x2

d------------------------------------------------------------------|
a------------------------------------------------------------------|
f------------------------------------------------------------------|
c------------------------------------------------------------------|
g-00-000-000-0-0~-000-0-000-000------000-00-000-0-0~-000-0-000-000-|
c-00-000-000-0-0~-000-0-000-000------000-00-000-0-0~-000-0-000-000-|

d----------------------------------------------------------------------|
a----------------------------------------------------------------------|
f--------------------------------------------------------------9~~~----| 
c----------------------------------------------------------------------|
g----------------------------------------------------------------------|
c-88-888-888-8-8~-888-8-888-888------777-77-777-7-7~-777-7-777---------|


Pre-Chorus

Lead Guitar (heavy distortion) x1

d------------------------------------------------------------------|
a------------------------------------------------------------------|
f--------------------------------------------9-9-10-9-10-9-10-9-10-|
c---------------8-7--------------------12-10-----------------------|
g------5-8---------------8h10----12-10-----------------------------|
c---0-0-0--0-0-0-0-0-0-0------8-8--8--8--8--8-8--------------------|

d-----------------------------------------------------------------|
a-----------------------------------------------------------------|
f-----------------------------------------------------------------|
c---------------8-7-----------88888888--7-7-7---------------------|
g------5-8---------------8h10-88888888--7-7-7---------------------|
c---0-0-0--0-0-0-0-0-0-0------88888888--7-7-7---------------------|


Rhythm Guitar (heavy distortion) x2

                                      End of 2nd time
d-------------------------------------|-----------------------------|
a-------------------------------------|-----------------------------|
f-------------------------------------|-----------------------------|
c-------------------------------------|-7-7-7-----------------------|
g-0000000000000000--8888888888888888--|-7-7-7-----------------------|
c-0000000000000000--8888888888888888--|-7-7-7-----------------------|


Chorus (heavy distortion, both guitars) x2

(Listen for strumming pattern) (only root chords are shown)
d-----------------------------------------------------------------|
a-----------------------------------------------------------------|
f--------10-9-10-12-10-9------------------------------------------|
c-0-8-7--x--x-x--x--x--x--0-8-7--5-3------------------------------|
g-0-8-7--8--7-8--10-8--7--0-8-7--5-3------------------------------|
c-0-8-7-------------------0-8-7--5-3------------------------------|


Outro (clean)

both guitars

d----------------------------|
a-6~-------------------------|
f-9~-------------------------|
c-0~-------------------------|
g-0~-------------------------|
c-0~-------------------------|
Suggest correction
Give kudos to tab author, rate the tab!
1 2 3 4 5
comments
print report bad tab
guest
You may want to rate the tab now too:
select rating
Wanna post a correction for this tab? Suggest correction