Oops, an error
Loading. Please wait.

If You Take My Life Tonight - Angels Of Death Tab

version 1
version 1

Whole song

77 views 1 this week
no commentswrite comment
1 2 3 4 5
please rate
add to favorites
launch autoscroll
font size
0
reset
how to read this tab
guitar tuner
Autoscroll
slow
fast
+/-
esc
set tempo
stop
Help us to improve Ultimate-Guitar.com Take our survey!
×
Contributor
Difficulty
Tuning
advanced
D A D G B E
*=harmonic pitch
p=pull off
h=hammer on
||
||
||=pic scrape
\=slide down
/=slide up
wah\=wah pedal down
wah/=wah pedal up
T=finger tapping
~=vibrato
wah//=wah pedal up and down fast
wah|/|wah pedal down fast and moving up slow
X=Palm mute

i added an extra bit on the solo i copied the solo from my other tab.

Notes: The 1 stands for light strumming and strumming getting slightly
harder and more high pitched and gradually bend the string up slowly.

Intro

Guitar one:

        1____________________________________________
E|-----------------------------------------------------------------|
B|--15-------15----15----15----15----------------------------------|
G|------17b----17b---17b---17b----17b------------------------------|
D|-----------------------------------------------------------------|
A|--------------------------------------------------(repeat for 30-| seconds)
D|-----------------------------------------------------------------|

Guitar Two:

E|-----------------------------------------------------------------------|
B|-----------------------------------------------------------------------|
G|-----------------------------------------------------------------------|
D|--0--------0--------0--------0-----3--------2--------1--------0--------|
A|--0--------0--------0--------0-----3--------2--------1--------0--------|
D|--0--------0--------0--------0-----3--------2--------1--------0--------|
   let each chord ring for 3 seconds

Pre-Verse

Guitar one and two: Play this four times

E|--------------------------------------------------------------------------|
B|--------------------------------------------------------------------------|
G|--------------------------------------------------------------------------|
D|--0-----------------------------------------------------------------------|
A|--0--------0-----0-----0-----0-----0----0-3\8--7-9-7-9-7-9-7-9------------|
D|--0--------0-----0-----0-----0-----0----0-3\8--7-9-7-9-7-9-7-9--1\12/1\7~-|
             X     X     X     X

Verse

Guitar one and two: play this four times

E|--------------------------------------------------------|
B|--------------------------------------------------------|
G|--------------------------------------------------------|
D|--------------------------------------------------------|
A|--0-----0-----0-----0--------0-----0-----0-----0--------|
D|--0-----0-----0-----0-----8~-0-----0-----0-----0-----7~-|
    X     X     X     X        X     X     X     X
Pre-Chours

Guitar one and two: play first riff here three times

E|-------------------------------------------------------------|
B|-------------------------------------------------------------|
G|-------------------------------------------------------------|
D|-------------------------------------------------------------|||||||
A|--0-----8-----0-----7-----0-----5-----0-----3-----0-----1----|||||||
D|--0-----8-----0-----7-----0-----5-----0-----3-----0-----1----|||||||

guitar one and two

E|--------------------------------------------------------|
B|--------------------------------------------------------|
G|--------------------------------------------------------|
D|--------------------------------------------------------|
A|--0-----0-----0-----0--------0-----0-----0-----0--------|
D|--0-----0-----0-----0-----8~-0-----0-----0-----0-----7~-|

Chours 1 Guitar One and Two: Play Twice

E|--------------------------------------------------------------------------|
B|--------------------------------------------------------------------------|
G|--------------------------------------------------------------------------|
D|--14----------14--------12--------12--------12--------12----------12------|
A|--12----------12---------0---------0---------0---------0----------10------|
D|--12----------12---------0---------0---------0---------0----------10------|

E|--------------------------------------------------------------------------|
B|--------------------------------------------------------------------------|
G|--------------------------------------------------------------------------|
D|--12----------12----------12----------12----------12----------12----------|
A|--10----------10----------10----------10----------10----------10----------|
D|--10----------10----------10----------10----------10----------10----------|

E|--------------------------------------------------------------------------|
B|--------------------------------------------------------------------------|
G|--------------------------------------------------------------------------|
D|--10--------10--------10--------10--------3--------3--------3--------3----|
A|--0---------0---------8---------8---------0--------0--------0--------1----|
D|--0---------0---------8---------8---------0--------0--------0--------1----|

Verse

Pre-Chours

Chours 1

Chours 2 guitar one and two:

SAME AS FIRST CHOURS EXCEPT STRUM THE TOP STRINGS ON 12TH 11TH 10TH 9TH 7TH
5TH 3RD AND THE FIRST FRET. EACH CHORD STRUM EIGHT TIMES. THEN DO THE ONE BAR FROM 
THE FIRST CHOURS.

SOLO

Guitar One:      TTTTTTTTTTTTTTTTTTTTTTTTTTTTTTTTTTTTTTTTTT

   wah \   wah/  wah\  wah/  wah\ wah/ wah/ wah\
E|--------------12h-13p-12h-14p-12h-15p-12h-16p-12h-17p-12h------------------|
B|----------12----------------------------------------------12------------12-|
G|------12------------------------------------------------------12------12---|
D|--14--------------------------------------------------------------14-------|
A|---------------------------------------------------------------------------|
D|---------------------------------------------------------------------------|

Guitar one: wah\ wah/ wah\ wah/ wah\ wah/            wah\ wah/ wah\
E|-------------------------------------13-----------14p13h15p13----------|
B|----------------------------------13-------------------------11h13p11--|
G|------14p17-----14h12-14*12-15*13------15p13-17h14p--------------------|
D|-14*15-----14h15p------------------------------------------------------|
A|-----------------------------------------------------------------------|
D|-----------------------------------------------------------------------|

E|-----0--1h--4h-5p--8p-|
B|----------------------|
G|--2*------------------|
D|----------------------|
A|----------------------|
D|----------------------|


E|------------------------------------------------------|
B|------------------------------------------------------|
G|------------------------------------------------------|
D|------------------------------------------------------|
A|------------------------------------------------------|
D|--3--5--3--5--7--9--7--9--1--3--1--3--10--12--10--12--|
  wah//

E|--------------------------------7b--9b--3p--1p----------------------------|
B|--------------------------7b--9b--------------1h--3h----------------------|
G|--------------------7b--9b--------------------------1~--3~----------------|
D|--------------7h--9h--------------------------------------1~--3~----------|
A|--------7h--9h--------------------------------------------------1~--3~----|
D|--7h--9h-----------------------------------------------------------1~--3~-|
   wah//                                          wah\\

E|--15p-1h--4h7--9--|h
B|------------------|
G|------------------|
D|------------------|
A|------------------|
D|------------------|
  flanger effect wah\\


E|--12------15--17------------------------------------------7--9--1--3------|
B|------13----------15--17-------------------------------7--9-------1--3----|
G|--------------------------15--17-------------------7--9---------------2---|
D|----------------------------------------------7--9------------------------|
A|----------------------------------------7--9------------------------------|
D|----------------------------------7--9------------------------------------|
   sweet picking

    TTTTTTTTTTTTTTTTTTTTTTTTTTTTTTTTTTTTTTTT
E|--12-13-12-14-12-15-12-16-12-17-12-18-1-2-1-3b-1b--4b-5b-|
B|---------------------------------------------------------|
G|---------------------------------------------------------|
D|---------------------------------------------------------|
A|---------------------------------------------------------|
D|---------------------------------------------------------|
  flanger and delay effects...............................

E|---------11--14--------------6--8--------------------6--8------9----15-17-|
B|-----------------12--13--14--------6--8--------6--8--------9--11----------|
G|-----------------------------------------6--8-----------------------------|
D|--------------------------------------------------------------------------|
A|--------------------------------------------------------------------------|
D|--------------------------------------------------------------------------|
           sweet picking

E|--------------------------------------------------------------------------|
B|--------------------------------------------------------------------------|
G|--------------------------------------------------------------------------|
D|--------------------------------------------------------------------------|
A|--------------------------------------------------------------------------|
D|--0--1--0--2--0--3--0--4--0--5--0--6--0--7--0--8--0--9--0--10--0--11------|
    ******************************************************************


E|--8--12-------------------13--14--15--------------------------18--17--16--|
B|---------8--10------------------------13--13--14--15----------------------|
G|----------------8--9--10------------------------------13--14--15----------|
D|--------------------------------------------------------------------------|
A|--------------------------------------------------------------------------|
D|--------------------------------------------------------------------------|
   sweet picking.....all bending and returning


E|------------------------------------------------------------|
B|------------------------------------------------------------|
G|------------------------------------------------------------|
D|--||||||||||||||||||||||||||||||||||||||||||||||||||||||||||
A|--||||||||||||||||||||||||||||||||||||||||||||||||||||||||||
D|--||||||||||||||||||||||||||||||||||||||||||||||||||||||||||

E|-----------------------------9--11b-13--13--14--13--14--15--16--15--18b---|
B|--------------------------------------------------------------------------|
G|---------------------11h--12h---------------------------------------------|
D|--------------10p--12p----------------------------------------------------|
A|-------9~--11~------------------------------------------------------------|
D|--3~--5~------------------------------------------------------------------|
    sweet picking....wah|/|........wah|\|..........wah\\..........wah|/|

E|------------------------------------------------------------|
B|------------------------------------------------------------|
G|------------------------------------------------------------|
D|--||||||||||||||||||||||||||||||||||||||||||||||||||||||||||
A|--||||||||||||||||||||||||||||||||||||||||||||||||||||||||||
D|--||||||||||||||||||||||||||||||||||||||||||||||||||||||||||

Guitar Two Plays Second Chours 8 times over the solo

verse

intro

chours 1

chours 2

intro

chours 2

intro

and you are done!
Suggest correction new What's this?
You can suggest a correction to this tab. Community and Mods will review your correction and vote to approve or reject it.
comments
We did not receive enough feedback on this tab! Please rate:
print report bad tab
1 2 3 4 5
guest
You may want to rate the tab now too:
select rating
Please do not post tabs as comments. Select "correction" instead!