Oops, an error
Loading. Please wait.

Iiro Kinnunen - Whats It All For Unfinished Tab

16 views 1 this week
no commentswrite comment
1 2 3 4 5
please rate
add to favorites
launch autoscroll
font size
0
reset
how to read this tab
guitar tuner
Autoscroll
slow
fast
+/-
esc
set tempo
stop
Help us to improve Ultimate-Guitar.com Take our survey!
×
Author
Difficulty
intermediate
hey guys here's a quick "intro" to what i am working on at school, this is entirely by 
me so don't think im some kind of reposter copier yolo fag :D

lyrics
Why is there hunger
Why is there war
Why is there poverty
What's all this for
Why is there hatred
Why's there no peace
Why's there fear
In our beliefs

Why
What's it all for!

Now we can come together
One without hunger, hatrid or fear!

What's it all for!

Why is there hunger
Why is there war
Why is there poverty
What's all this for
Why is there hatred
Why's there no peace
Why's there fear
In our beliefs

(btw u need the lyrics if you want to learn this song)

Duration Legend
---------------
W - whole
H - half
Q - quarter
E - 8th
S - 16th
T - 32nd
X - 64th
. - note dotted
|-n-|  - n-tuplets


Tablature Legend
----------------
L - tied note
x - dead note
g - grace note
(n) - ghost note
> - accentuded note
NH - natural harmonic
AH - artificial harmonic
TH - tapped harmonic
SH - semi harmonic
PH - pitch harmonic
h - hammer on
p - pull off
b - bend
br - bendRelease
pb - preBend
pbr - preBendRelease
brb - bendReleaseBend
\n/ - tremolo bar dip
\n - tremolo bar dive
-/n - tremolo bar Release up
/n\ - tremolo bar inverted dip
/n - tremolo bar return
-\n - tremolo bar Release down
S - shift slide
s - legato slide
/ -  slide into from below or out of upwards
\ -  slide into from above or out of downwards
~ - vibrato
W - wide vibrato
tr - trill
TP - tremolo picking
T - tapping
S - slap
P - pop
< - fade in
^ - brush up
v - brush down

Tab

Acoustic
     PM   PM   PM   PM      PM   PM   PM   PM      PM   PM   PM   PM
     Q    Q    Q    Q       Q    Q    Q    Q       Q    Q    Q    Q
E||--0----0----0----0----|--0----0----0----0----|--0----0----0----0----|
B||--1----1----1----1----|--1----1----1----1----|--1----1----1----1----|
G||--0----0----0----0----|--0----0----0----0----|--0----0----0----0----|
D||--2----2----2----2----|--2----2----2----2----|--2----2----2----2----|
A||--3----3----3----3----|--3----3----3----3----|--3----3----3----3----|
E||--0----0----0----0----|--0----0----0----0----|--0----0----0----0----|


  PM   PM   PM   PM
  Q    Q    Q    Q
--0----0----0----0----|-------|-------|-------|-------|
--1----1----1----1----|-------|-------|-------|-------|
--0----0----0----0----|-------|-------|-------|-------|
--2----2----2----2----|-------|-------|-------|-------|
--3----3----3----3----|-------|-------|-------|-------|
--0----0----0----0----|-------|-------|-------|-------|


    Why -
    PM    PM   PM   PM      PM   PM   PM   PM
    Q     Q    Q    Q       Q    Q    Q    Q
|---0-----0----0----0----|--0----0----0----0----|
|---1-----1----1----1----|--1----1----1----1----|
|*--0-----0----0----0----|--0----0----0----0----|
|*--2-----2----2----2----|--2----2----2----2----|
|---3-----3----3----3----|--3----3----3----3----|
|---0-----0----0----0----|--0----0----0----0----|


  - Is there hunger?
  PM                 PM   PM   PM      PM   PM   PM   PM
  Q                  Q    Q    Q       Q    Q    Q    Q     8x
--0------------------0----0----0----|--0----0----0----0-----||
--1------------------1----1----1----|--1----1----1----1-----||
--2------------------2----2----2----|--2----2----2----2----*||
--2------------------2----2----2----|--2----2----2----2----*||
--0------------------0----0----0----|--0----0----0----0-----||
--0------------------0----0----0----|--0----0----0----0-----||


  Why!?                               Whats it all for!?
                  W
  Q     Q    Q    W                   Q                     Q
--0-----0----0----0----------------|--x------------------|--x----|
--1-----1----1----1----------------|--x------------------|--x----|
--0-----0----0----0----------------|--x------------------|--x----|
--2-----2----2----2----------------|--x------------------|--x----|
--3-----3----3----3----------------|--x------------------|--x----|
--0-----0----0----0----------------|--x------------------|--x----|

OverDrive
    Q    Q    Q    Q       Q    Q    Q    Q       Q    Q    Q    Q
|-----------------------|----------------------|----------------------|
|-----------------------|----------------------|----------------------|
|*----------------------|----------------------|----------------------|
|*--3----3----3----3----|--3----3----3----3----|--5----5----5----5----|
|---3----3----3----3----|--3----3----3----3----|--5----5----5----5----|
|---1----1----1----1----|--1----1----1----1----|--3----3----3----3----|


  Q    Q    Q    Q         W
-----------------------||-------------------|-------|
-----------------------||-------------------|-------|
----------------------*||--5----------------|-------|
--5----5----5----5----*||--5----------------|-------|
--5----5----5----5-----||--3----------------|-------|
--3----3----3----3-----||-------------------|-------|

Steel/acoustic Picking
     Now we come together and make a new world
     Q                                         Q      Q      Q
|------------------------------------------------------------------|
|-----------------------------------------------------------(1)----|
|*---------------------------------------------------(0)-----------|
|*--------------------------------------------(2)------------------|
|---(3)------------------------------------------------------------|
|------------------------------------------------------------------|


   Q      Q      Q      Q         Q      W
------------------------------|----------------------------|
------------------------------|---------(1)----------------|
--(0)-------------------------|--(0)-----------------------|
---------(2)-----------(2)----|----------------------------|
----------------(3)-----------|----------------------------|
------------------------------|----------------------------|


   One without hunger -
   Q                    Q      Q      Q
--------------------------------------------|
-------------------------------------(1)----|
------------------------------(2)-----------|
-----------------------(2)------------------|
--(0)---------------------------------------|
--------------------------------------------|


   - hatrid or fear!
   Q                 Q      Q      Q         Q      W                  4x
-----------------------------------------|-----------------------------||
-----------------------------------------|---------(1)-----------------||
--(2)------------------------------------|--(2)-----------------------*||
--------------------(2)-----------(2)----|----------------------------*||
---------------------------(0)-----------|-----------------------------||
-----------------------------------------|-----------------------------||


  Whats it all for!?             Overdrive
  Q                     Q         Q    Q    Q    Q       Q    Q    Q    Q
--x------------------|--x----||-----------------------|----------------------|
--x------------------|--x----||-----------------------|----------------------|
--x------------------|--x----||*----------------------|----------------------|
--x------------------|--x----||*--3----3----3----3----|--3----3----3----3----|
--x------------------|--x----||---3----3----3----3----|--3----3----3----3----|
--x------------------|--x----||---1----1----1----1----|--1----1----1----1----|


                                                   Why -
                                                   ^     ^    v    ^
  Q    Q    Q    Q       Q    Q    Q    Q          Q     Q    Q    Q
----------------------|-----------------------||---0-----0----0----0----|
----------------------|-----------------------||---1-----1----1----1----|
----------------------|----------------------*||*--0-----0----0----0----|
--5----5----5----5----|--5----5----5----5----*||*--2-----2----2----2----|
--5----5----5----5----|--5----5----5----5-----||---3-----3----3----3----|
--3----3----3----3----|--3----3----3----3-----||---0-----0----0----0----|


                         - Is there hunger?
  ^    ^    v    ^       ^                  ^    v    ^
  Q    Q    Q    Q       Q                  Q    Q    Q
--0----0----0----0----|--0------------------0----0----0----|
--1----1----1----1----|--1------------------1----1----1----|
--0----0----0----0----|--2------------------2----2----2----|
--2----2----2----2----|--2------------------2----2----2----|
--3----3----3----3----|--0------------------0----0----0----|
--0----0----0----0----|--0------------------0----0----0----|


  ^    ^    v    ^         ^    ^    v    ^       ^
  Q    Q    Q    Q     4x  Q    Q    Q    Q       W
--0----0----0----0-----||--0----0----0----0----|--0----------------|
--1----1----1----1-----||--1----1----1----1----|--1----------------|
--2----2----2----2----*||--0----0----0----0----|--0----------------|
--2----2----2----2----*||--2----2----2----2----|--2----------------|
--0----0----0----0-----||--3----3----3----3----|--3----------------|
--0----0----0----0-----||--0----0----0----0----|--0----------------|


  ^    ^    v    ^       ^                   ^    ^    v    ^
  Q    Q    Q    Q       W                   Q    Q    Q    Q
--0----0----0----0----|--0----------------|--0----0----0----0----|
--1----1----1----1----|--1----------------|--1----1----1----1----|
--2----2----2----2----|--2----------------|--0----0----0----0----|
--2----2----2----2----|--2----------------|--2----2----2----2----|
--0----0----0----0----|--0----------------|--3----3----3----3----|
--0----0----0----0----|--0----------------|--0----0----0----0----|


  ^                   ^    ^    v    ^       ^
  W                   Q    Q    Q    Q       W
--0----------------|--0----0----0----0----|--0----------------|
--1----------------|--1----1----1----1----|--1----------------|
--0----------------|--2----2----2----2----|--2----------------|
--2----------------|--2----2----2----2----|--2----------------|
--3----------------|--0----0----0----0----|--0----------------|
--0----------------|--0----0----0----0----|--0----------------|


  Q    Q    Q    Q       W                   Q    Q    Q    Q
----------------------|-------------------|----------------------|
----------------------|-------------------|----------------------|
----------------------|-------------------|----------------------|
--3----3----3----3----|--3----------------|--5----5----5----5----|
--3----3----3----3----|--3----------------|--5----5----5----5----|
--1----1----1----1----|--1----------------|--3----3----3----3----|


  W
-------------------|-------||
-------------------|-------||
-------------------|-------||
--5----------------|-------||
--5----------------|-------||
--3----------------|-------||




not finished so bear with me :P thanx!
Suggest correction
Give kudos to tab author, rate the tab!
1 2 3 4 5
comments
print report bad tab
guest
You may want to rate the tab now too:
select rating
Wanna post a correction for this tab? Suggest correction