Oops, an error
Loading. Please wait.

Imbue No Kudos-Charisma Tab

469 views 1 this week
no commentswrite comment
1 2 3 4 5
please rate
add to favorites
launch autoscroll
font size
0
reset
how to read this tab
guitar tuner
Autoscroll
slow
fast
+/-
esc
set tempo
stop
Help us to improve Ultimate-Guitar.com Take our survey!
×
Author
Difficulty
intermediate
Artist:Imbue No Kudos(I.N.K)
Song title:Charisma

tabber:Jan Carlo "PONGA" Nacion

intro
guitar 1 and 2 
E---------------------------------l
B---------------------------------l
G---------------------------------l
D--0-0---5-5---3-3---6-6---1-1----l
A--0-0---5-5---3-3---6-6---1-1----l
D--0-0---5-5---3-3---6-6---1-1----l(1x)
  (You're an inspiration)


verse1
guitar 1 and 2
E------------------------------l
B------------------------------l
G------------------------------l
D--0-0-0--5-5--6-6-6--3-3-3-3--l
A--0-0-0--5-5--6-6-6--3-3-3-3--l
D--0-0-0--5-5--6-6-6--3-3-3-3--l(4x)
  (You always make me...


pre-chorus
guitar1
E----------------------------------l
B----------------------------------l
G----------------------------------l
D--0-0---0-5---0-3---0-6---0-1--3--l
A--0-0---0-5---0-3---0-6---0-1--3--l
D--0-0---0-5---0-3---0-6---0-1--3--l(4x)
     .   .     .     .     .     

guitar2
E--------------------------------|    ------------------------------15----l
B--------------------------------|    ---------------------------13----13-l
G--------------------------------|    ------------------------12----------l
D-0-0---0-5---0-3---0-6---0-1--3-|    0-0---0-5---0-3---0-6---------------l
A-0-0---0-5---0-3---0-6---0-1--3-|    0-0---0-5---0-3---0-6---------------l
D-0-0---0-5---0-3---0-6---0-1--3-|3x  0-0---0-5---0-3---0-6---------------l
    .   .     .     .     .              .   .     .     .     
 (That life is perfect...             (this pure love and affection!)



chorus
guitar1                                     
E--------------------------------l
B--------------------------------l
G--------------------------------l       guitar 2 - ? 
D---7----3------7----3---6-------l       hndi q maintindihan eh
A---7----3------7----3---6-------l
D---7----3------7----3---6-------l(1x)
  (So I sing this line......


guitar1
E--------------------------------l
B--------------------------------l
G--------------------------------l
D---7----3------7----3---6-------l
A---7----3------7----3---6-------l
D---7----3------7----3---6-------l(1x)
   (You're the light in my.....
guitar2
E------8--10--12--10--8--10--------8--10--8--10--8--10--8---l
B--10---------------------------6---------------------------l
G-----------------------------------------------------------l
D-----------------------------------------------------------l
A-----------------------------------------------------------l
D-----------------------------------------------------------l

E------8--10--12--10--8--10--------8--10--8----l
B--10---------------------------6------------9-l
G----------------------------------------------l
D----------------------------------------------l
A----------------------------------------------l
D----------------------------------------------l
  (You're the light in my.....



verse2-repeat verse1
pre-chorus-repeat
chorus-repeat


bridge-part1
guitar1
E-----------------------------------------l
B-----------------------------------------l
G----------------10p7-9p7-10p7-9p7-10p7---l
D--000000000------------------------------l
A--000000000------------------------------l
D--000000000------------------------------l(3x)
   .........                                     
  (I know you know...

guitar2 (sa pangalawang beses ng guitar1 papasok)
E---------------------------------l   ----------------------------l
B---------------------------10-9--l   --------------10-9-10-9-10--l
G-------------10p7-9p7-10p7-------l   ----------------------------l
D-000000000-----------------------l   -000000000------------------l
A-000000000-----------------------l   -000000000------------------l
D-000000000-----------------------l   -000000000------------------l
  .........                            .........                     
 (how it feels like...                            


E--------------------------------------l
B--------------------------------------l
G--------------------------------------l
D--000000000~~-----8-7-5----10-8-7-----l
A--000000000~~-----8-7-5----10-8-7-----l
D--000000000~~-----8-7-5----10-8-7-----l
   ........        (HOW IT FEELS!!!)
             

bridge-part2
guitar 1 and 2
E-------------------------------------------------------------------l
B-------------------------------------------------------------------l
G-----------------------------------------------------------9--10p9-l
D-00000-7-8-7----00000-8-10-8----00000-7-8-7-----0-10-8-0---9--10p9-l
A-00000-7-8-7----00000-8-10-8----00000-7-8-7-----0-10-8-0---7---8p7-l
D-00000-7-8-7----00000-8-10-8----00000-7-8-7-----0-10-8-0-----------l
  .....          .....           .....                    
 (I'm so desperate...


bridge-part3
guitar1
E--------------------------------l
B--------------------------------l
G--------------------------------l
D--------------------------------l
A-0-00-10-00-12-00-13-00-10-12---l
D-0-00-10-00-12-00-13-00-10-12---l(3x)
    ..    ..    ..    ..         

guitar2  (sa pangalawang beses ng guitar1 papasok)
E--------------------------------------------l
B--------------------------------------------l
G--------------------------------------------l
D--------------------------------------------l
A-----7--8--10--7-8--------8--10--12--8-10---l
D--000-00-00--00--------000-00--00--00-------l
   ... .. ..  ..        ... ..  ..  ..                        

tapos e2
guitar 1 and 2
E------------------------------------------l
B------------------------------------------l
G------------------------------------------l
D------------------------------------------l
A---000--101010--131313--101010--1313-12---l
D---000--101010--131313--101010--1313-12---l



pre-chorus
guitar1
E---------------------------------------------l
B---------------------------------------------l
G---------------------------------------------l
D--888888---555555---888888---5--8--3--6--1---l
A--888888---555555---888888---5--8--3--6--1---l
D--888888---555555---888888---5--8--3--6--1---l

guitar2 (paulit-ulit lang)
E------------------l
B----10-11-13(3x?)-l
G------------------l  kyo n bhla kng 
D------------------l   ilan beses
A------------------l  hndi kc msydong mrinig eh
D------------------l
 (everything is fine....


chorus (pede e2 idagdag s chorus/kng gs2 nyo lng , prang mron eh)
E---------------------------------l
B---------------------------------l
G---------------------------------l
D---7----3-2-----7-9-10--3-2--6---l
A---7----3-2-----7-9-10--3-2--6---l
D---7----3-2-----7-9-10--3-2--6---l


pre-outro?
E-----------l
B-----------l
G-----------l kyo n bhala kng pano
D--666666---l
A--666666---l
D--666666---l

outro
E--------------------------------l
B--------------------------------l
G--------------------------------l
D--0-0---5-5---3-3---6-6---1-1---l
A--0-0---5-5---3-3---6-6---1-1---l
D--0-0---5-5---3-3---6-6---1-1---l
  (You're an inspiration)

end

pkingan nyo nlng ung knta pra s timing.

for any corrections, comments and suggestions
just e-mail me at ponga_8@yahoo.com

pls. rate this tab
Suggest correction
Give kudos to tab author, rate the tab!
1 2 3 4 5
comments
print report bad tab
guest
You may want to rate the tab now too:
select rating
Wanna post a correction for this tab? Suggest correction