Oops, an error
Loading. Please wait.

In Bloom - Crazy Lil Mouse Tab

291 views 3 this week
no commentswrite comment
1 2 3 4 5
please rate
add to favorites
launch autoscroll
font size
0
reset
how to read this tab
guitar tuner
Autoscroll
slow
fast
+/-
esc
set tempo
stop
Help us to improve Ultimate-Guitar.com Take our survey!
×
Author
Difficulty
novice
-------------------------------------------------------------------------------
                             Crazy Lil Mouse - In Bloom
-------------------------------------------------------------------------------
Tabbed by: Tuck
Email: Ncfencer@gmail.com

Tuning: Standard

Intro
e|------------------------------12-12----------------------------------------|
B|-12-12-12-12~----12-12--12-13----------------------------------------------|
G|---------------------------------------------------------------------------|
D|---------------------------------------------------------------------------|
A|---------------------------------------------------------------------------|
E|---------------------------------------------------------------------------|

e|---12---12---12------12-------------------12---12---12---------------------|
B|-13---12---11---10-10------x3-then------13---12---11---10~-----------------|
G|---------------------------------------------------------------------------|
D|---------------------------------------------------------------------------|
A|---------------------------------------------------------------------------|
E|---------------------------------------------------------------------------|

Break
e|---12---12---12------12-----------------12------12--12------12-------------|
B|-13---12---11---10-10-----x4 then-----13---14-----15---14-14---------------|
G|---------------------------------------------------------------------------|
D|---------------------------------------------------------------------------|
A|---------------------------------------------------------------------------|
E|---------------------------------------------------------------------------|

e|---12---12---12------------------------------------------------------------|
B|-13---12---11---10~--------------------------------------------------------|
G|---------------------------------------------------------------------------|
D|---------------------------------------------------------------------------|
A|---------------------------------------------------------------------------|
E|---------------------------------------------------------------------------|

Then mess around with this:
e|---------------------------------------------------------------------------|
B|-----4-----------4----------7---------------------4------------------------|
G|---4--4--------4--4-------7--7------7-----------4--4-------7~--------------|
D|--4----4--4---4----4-4---7----7-7--7---7---7---4----4-4---7~---------------|
A|-2--------2--2-------2--5-------5-5----5---5--2-------2--5~----------------|
E|---------------------------------------------------------------------------|
Wah~~~~~~~~~~~~~~~~~~~~~~~~~~~~~~~~~~~~~~~~~~~~~~~~~~~~~~~~~~~

Cool song, only available on Bandits soundtrack.
Suggest correction
Give kudos to tab author, rate the tab!
1 2 3 4 5
comments
print report bad tab
guest
You may want to rate the tab now too:
select rating
Wanna post a correction for this tab? Suggest correction