Oops, an error
Loading. Please wait.

In Limbo - The Dizzy Head Project Tab

41 views 1 this week
no commentswrite comment
1 2 3 4 5
please rate
add to favorites
launch autoscroll
font size
0
reset
how to read this tab
guitar tuner
Autoscroll
slow
fast
+/-
esc
set tempo
stop
Help us to improve Ultimate-Guitar.com Take our survey!
×
Author
In Limbo ©

Written by Rick "Dizzy" Solis

Performed by: The Dizzy Head Project

Tuning: Drop D

BPM: 161 or 162 (may change later)

Idea Date: May or June 2009 (I forget.)

Finished Tabbed Idea: December 13, 2009


|-----------------|
|-----------------|
|-----------------|
|--0----5-6-5---3-|
|--0----5-6-5---3-|
|--0----5-6-5---3-|




 Play 4X
|-------------------------------|-----------------------------------------|
|-------------------------------|-----------------------------------------|
|-------------------------------|-----------------------------------------|
|--------------------------7-8--|--------------------------------1---3--1-|
|--------------------------7-8--|--------------------------------1---3--1-|
|--0-0-0-0-0-0-0-0-0-0-0-0-7-8--|--0-0-0-0-0-0-0-0-0-0-0-0-0-0---1---3--1-|








|---------------------------------------|Play 3X
|---------------------------------------|
|---------------------------------------|
|---------------------------------------|
|--0-0--0-0--0-0----0--0-0-0---8-10-8---|
|--0-0--0-0--0-0----0--0-0-0---8-10-8---|





|------------------------------------|----------------------------------|
|------------------------------------|-------------Play This 4x---------|
|------------------------------------|----------------------------------|
|------------------------------------|----------------------------------|
|--3-3-3-3-3-3-3-3---2-2-2-2-2-2-2-2-|--0-0-0-0-0-0-0-0------0--5--7--3-|
|--3-3-3-3-3-3-3-3---2-2-2-2-2-2-2-2-|--0-0-0-0-0-0-0-0------0--5--7--3-|
|
|
|----------------------|--------------------------|
|----------------------|--------------------------|
|----------------------|--------Just  0-----------|
|----------------------|---------10x ( I think)---|
|--1-3-5-7-5-3-1-3-5-1-|--0-0-0-0-0-0-0-0-0-0-7-8-|
|--1-3-5-7-5-3-1-3-5-1-|--0-0-0-0-0-0-0-0-0-0-7-8-|
|
|
|--------------------------|----------------------------------|
|--------------------------|----------------------------------|
|--------------------------|----------------------------------|
|--------------------------|------8-----7-----8-----7-----7-8-|
|--0-0-0-0-0-0-0-0---------|----------------------------------|
|--0-0-0-0-0-0-0-0---------|--0-0---0-0---0-0---0-0---0-0-----|
|
|*Harmonic...feel it out.
|--------------------------------|----------------------------------|
|---Play 4X----------------------|----------------------------------|
|--------------------------------|----------------------------------|
|------8-----7-----8-7-5-------5*|------------------------------7-7-|
|------------------------8-7-5---|------8-----8-----8-----8---------|
|--0-0---0-0---0-0---------------|--0-0---0-0---0-0---0-0---0-0-----|
|
|
|--------------------------------|
|--------------------------------|Play 4X Ring out the Last note
|--------------------------------|
|--------------------------------|
|------8-----8-----8-------5-7-8-|
|--0-0---0-0---0-0---0-0-0-------|





|----------------|------------------------------|
|----------------|---Play 4X--------------------|
|----------------|------------------------------|
|--0-7-8-5-3-5-3-|--0---0-0-0---0---0---1-1-1-1-|
|--0-7-8-5-3-5-3-|--0---0-0-0---0---0---1-1-1-1-|
|--0-7-8-5-3-5-3-|--0---0-0-0---0---0---1-1-1-1-|





|-----------------------------|----------------------------------|
|-----------------------------|----------------------------------|
|-----------------------------|----------------------------------|
|--5-5-5-5-5--6-6-6-6-6-6-6-6-|--5-5-5-5-5-5-5-5---3-3-3-3-3-3-3-|
|--5-5-5-5-5--6-6-6-6-6-6-6-6-|--5-5-5-5-5-5-5-5---3-3-3-3-3-3-3-|
|--5-5-5-5-5--6-6-6-6-6-6-6-6-|--5-5-5-5-5-5-5-5---3-3-3-3-3-3-3-|
|
|
|------------------------------|
|---Play 4X--------------------|
|------------------------------|
|--0---0-0-0---0---0---1-1-1-1-|
|--0---0-0-0---0---0---1-1-1-1-|
|--0---0-0-0---0---0---1-1-1-1-|
|
|
|-----------------------------|----------------------------------|
|-----------------------------|----------------------------------|
|-----------------------------|----------------------------------|
|--5-5-5-5-5--6-6-6-6-6-6-6-6-|--5-5-5-5-5-5-5-5---3-3-3-3-3-3-3-|
|--5-5-5-5-5--6-6-6-6-6-6-6-6-|--5-5-5-5-5-5-5-5---3-3-3-3-3-3-3-|
|--5-5-5-5-5--6-6-6-6-6-6-6-6-|--5-5-5-5-5-5-5-5---3-3-3-3-3-3-3-|





|------------------------------------------|
|------------------------------------------|
|------------------------------------------|
|------------------------------------------|
|------------------------------------------|
|--0-0-0-0-10-0-9---0-0-0-0-10-0-9-0-7-3-5-|
|
|------------------------------------------|
|------------------------------------------|
|------------------------------------------|
|------------------------------------------|
|------------------------------------------|
|--0-0-0-0-10-0-9---0-0-0-0-10-0-9-0-7-5-7-|
|
|------------------------------------------|
|------------------------------------------|
|------------------------------------------|
|------------------------------------------|
|------------------------------------------|
|--0-0-0-0-10-0-9---0-0-0-0-10-0-9-0-7-3-5-|
|
|------------------------------------------|
|------------------------------------------|
|------------------------------------------|
|------------------------------------------|
|------------------------------------------|
|--0-0-0-0-10-0-9---0-0-0-0-10-0-9-0-7-5-7-|
|
|------------------------------------------|
|------------------------------------------|
|------------------------------------------|
|------------------------------------------|
|------------------------------------------|
|--0-0-0-0-10-0-9---0-0-0-0-10-0-9-0-7-5-7-|

|------------------|------------------|----------------|
|------------------|------------------|----------------|
|------------------|------------------|----------------|
|------------------|------------------|----------------|
|--3-3-3-3-3-3-3-3-|--2-2-2-2-2-2-2-2-|--0---0---0---0-|
|--3-3-3-3-3-3-3-3-|--2-2-2-2-2-2-2-2-|--0---0---0---0-|
|
|
|------------------------------------------------------|
|------------------------------------------------------|
|------------------------------------------------------|
|------------------------------------------------------|
|--1-1-1-1---0-0-0-0---1-1-1-1---0-0-0-0---1-1-1-1---0-|
|--1-1-1-1---0-0-0-0---1-1-1-1---0-0-0-0---1-1-1-1---0-|
Suggest correction
What's this?
You can suggest a correction to this tab. Community and Mods will review your correction and vote to approve or reject it.
comments
We did not receive enough feedback on this tab! Please rate:
print report bad tab
1 2 3 4 5
guest
You may want to rate the tab now too:
select rating
Please do not post tabs as comments. Select "correction" instead!