Oops, an error
Loading. Please wait.

In Oceans - Less Chat More Rat Tab

207 views 1 this week
no commentswrite comment
1 2 3 4 5
please rate
add to favorites
launch autoscroll
font size
0
reset
how to read this tab
guitar tuner
Tab Pro tools
  • play this tab
  • loop segment
  • change instrument
  • show fretboard
  • metronome
Autoscroll
slow
fast
+/-
esc
set tempo
stop
Contributor
-------------------------------------------------------------------------------
                         Less Chat More Rat - In Oceans
-------------------------------------------------------------------------------
Tabbed by:Kye Walker
Email:kye@hotmail.co.uk

Tuning: Drop D (DADGBE)


http://inoceans.bandcamp.com



e|--------------------------------------------------------------|
B|--------------------------------------------------------------|
G|--------------------------------------------------------------|
D|--------------7-6-5-4-----------------------------------------|
A|------5-4-0----------6-5-4------------------------------------|
D|-0-5-6-----4-0------------8b-0--0-0-0-8b-0--0-0-0-------------|



e|------------------------------4-3-0---------------------------|
B|-----------------------------------4-3-0----------------------|
G|-----3-----4-----3-----4-4-4------------4-3-0-----------------|
D|--------------------------------------------------------------|
A|--------------------------------------------------------------|
D|-0-6---0-6---0-6---0-6----------------------------------------|



e|---0---0---0-----------0----0----0----------------------------|
B|---0---0---0-----------0----0----0----------------------------|
G|---3---3---3--7-6-7----3----3----3----------------------------|
D|-2--2-2--2----6-5-6--2---2-2--2-2-----------------------------|
A|-2--2-2--2----7-6-7--2---2-2--2-2-----------------------------|
D|-2--2-2--2-----------2---2-2--2-2-----------------------------|




e|-------------------5-p3-0-------12-p10-0----------------------|
B|-------------------------5-p3-0---------12-p10-0--------------|
G|--------------------------------------------------------------|
D|--------------------------------------------------------------|
A|-5-H7-5-------------------------------------------------------|
D|-------9-5-H7-5-2-0-------------------------------------------|



e|--------------------------------------------------------------|
B|-----------------------10-9-----------------------------------|
G|--------------------------------------------------------------|
D|-1--0--6--6-5-6--8-7-8--8-7-----------------------------------|
A|-1--0--6--5-4-5--7-6-7----------------------------------------|
D|-1--0--6------------------------------------------------------|



e|--------------------------------------------------------------|
B|-13----------12-10--------------------------------------------|
G|---12------11-----11---------10-p9----------------------------|
D|-----11-s10---------12-p10-p9---------------------------------|
A|----------------------------------12-p11----------------------|
D|--------------------------------------------------------------|


e|--------------------------------------------------------------|
B|--------------------------------------------------------------|
G|-------------------------------------7-6-5--------------------|
D|--4-------4------3--4---------------------7-------------------|
A|---3-p0----3-p0-2----3-p0----7-6-5----------------------------|
D|-2-----2-2-----1--2------2-p0-----7-6-------------------------|



e|--------------------------------------------------------------|
B|--------------------------------------------------------------|
G|----------------------6--7--8--9---10-------------------------|
D|--4-------4-----1------7--8--9--10----------------------------|
A|---3-p0----3-p0--2------8--9--10--11--------------------------|
D|-2-----2-2-----1--3-0-----------------------------------------|


Vocal kick in riff:  X2

e|--------------------------------------------------------------|
B|--------------------------------------------------------------|
G|--------------------------------------------------------------|
D|---4-----------------2----------------------------------------|
A|-----3----/6-----------3--------------------------------------|
D|-2-----2-----7--0-2-4----1--0--2--0--1---0--2--0--1-----------|


e|--------------------------------------------------------------|
B|--------------------------------------------------------------|
G|-----------------------6--7--8--9-----------------------------|
D|---4-----------------2--7--8--9-------------------------------|
A|-----3----/6----------3--8--9--10-----------------------------|
D|-2-----2-----7--0-2-4--4--------------------------------------|



e|--------------------------------------------------------------|
B|--------------------------------------------------------------|
G|--------------------------------------------------------------|
D|---4-----------------2----------------------------------------|
A|-----3----/6----------3---------------------------------------|
D|-2-----2-----7--0-2-4--1--0--2--0--1--0--2--0--1--0--2--0--1-0|


e|--------------------------------------------------------------|
B|----b15-------------------------------------------------------|
G|----------6-5------------------------7-7--6-7-----------------|
D|--------------7-6--------------------6-6--5-6-----------------|
A|------------------8-7--------7-6-----7-7--6-7-----------------|
D|-----------------------0-7-8----7-6---------------------------|
comments
We did not receive enough feedback on this tab! Please rate:
print report bad tab
1 2 3 4 5
I want to post or [tab]
guest
You may want to rate the tab now too:
select rating
Please do not post tabs as comments. Select "correction" instead!