Oops, an error
Loading. Please wait.

In The Eyes Of A Mistress - Dude Chicks Are For Fags Bass Tab

51 views 1 this week
no commentswrite comment
1 2 3 4 5
please rate
add to favorites
launch autoscroll
font size
0
reset
guitar tuner
Autoscroll
slow
fast
+/-
esc
set tempo
stop
Help us to improve Ultimate-Guitar.com Take our survey!
×
Author
Difficulty
Tuning
novice
C G C F A D
-----------------------------------------------------------------------------
DUDE, CHICKS ARE FOR FAGS - In The Eyes Of a Mistress
-----------------------------------------------------------------------------
Tabbed by: PotatoSacks
Email: iteoam32@gmail.com

Tuning: Drop C

F|--------------------------------------------------------------------------|
C|--------------------------------------------------------------------------|
G|--------------------------------------------------------------------------|
C|-00000---0--00000--000-0-0-0-000-000--------------------------------------|

F|--------------------------------------------------------------------------|
C|--------------------------------------------------------------------------|
G|--------------------------------------------------------------------------|
C|-7-7-7-7-5-5-5-8-8-8-3-3-3-3-5-5-7-7-7-7-5-5-5-0-0-0-2-2-3-3-5-5----------|

F|--------------------------------------------------------------------------|
C|--------------------------------------------------------------------------|
G|--------------------------------------------------------------------------|
C|-0-0-0-0-0-0-0-0-0-0-0-0-0-0-0-0-0----------0000-0------------------------|

F|--------------------------------------------------------------------------|
C|--------------------------------------------------------------------------|
G|--------------------------------------------------------------------------|
C|-00000-000-0-0-0-0-00000-0-0-0-00000-0-0-0-00000--------------------------|
Suggest correction
Give kudos to tab author, rate the tab!
1 2 3 4 5
comments
print report bad tab
guest
You may want to rate the tab now too:
select rating
Wanna post a correction for this tab? Suggest correction