Oops, an error
Loading. Please wait.

In The Eyes Of A Mistress - Its Not A Motorcycle Baby Its A Chopper Tab

141 views 1 this week
no commentswrite comment
1 2 3 4 5
3 more votes to show rating
add to favorites
launch autoscroll
font size
0
reset
how to read this tab
guitar tuner
Autoscroll
slow
fast
+/-
esc
set tempo
stop
Help us to improve Ultimate-Guitar.com Take our survey!
×
Author
Difficulty
Tuning
novice
C G C F A D
-----------------------------------------------------------------------------
IT'S NOT A MOTORCYCLE BABY, IT'S A CHOPPER - In The Eyes Of a Mistress
-----------------------------------------------------------------------------
Tabbed by: PotatoeSacks 
Email: iteoam32@gmail.com

Tuning: Drop C

Lead x6
Rhythm (pick slide in) x5
D|--------------------------------------------------------------------------|
A|--------------------------------------------------------------------------|
F|--------------------------------------------------------------------------|
C|----------------3-2--------------------------3x-3x-3x-2x-2x-2x-2x---------|
G|-----------5-0-3-----3-----------------5-0-3-3x-3x-3x-2x-2x-2x-2x---------|
C|-0--01/5-0-------------5-3-2-0--01/5-0-------3x-3x-3x-2x-2x-2x-2x---------|

Lead + Rhythm (palm mute)x2 
D|--------------------------------------------------------------------------|
A|--------------------------------------------------------------------------|
F|--------------------------------------------------------------------------|
C|-000-0-000-0-00000-000-00000-0-0-0-0000-0-0-000-0--0--0-------------------|
G|-000-0-000-0-00000-000-00000-0-0-0-0000-0-0-000-0--0--0-------------------|
C|-000-0-000-0-00000-000-00000-0-0-0-0000-0-0-000-0--0--0-------------------|

Lead x3
D|--------------------------------------------------------------------------|
A|--------------------------------------------------------------------------|
F|--------------------------------------------------------------------------|
C|----------------3-2-------------------------------------------------------|
G|-----------5-0-3-----3-----------------5-0-3-0-3-0-3-5--------------------|
C|-0--01/5-0-------------5-3-2-0--01/5-0------------------------------------|


Lead + Rhythm x3
D|--------------------------------------------------------------------------|
A|-10 10 10 10 10 10 10 10 10 10 10 10 10 10-10-10-10-----------------------|
F|--------------------------------------------------------------------------|
C|-8  8  8  8  8  8  8  8  8  8  8  8  8  8 -8 -8 -8------------------------|
G|--------------------------------------------------------------------------|
C|--------------------------------------------------------------------------|

Lead + Rhythm x3
D|--------------------------------------------------------------------------|
A|--------------------------------------------------------------------------|
F|--------------------------------------------------------------------------|
C|--------------------------------------------------------------------------|
G|--------------------------------------------------------------------------|
C|-8-7-0-7-0-7-8-7-0-7-0-7-8-7----------------------------------------------|

Lead + Rhythm x3
D|--------------------------------------------------------------------------|
A|--------------------------------------------------------------------------|
F|--------------------------------------------------------------------------|
C|--------------------------------------------------------------------------|
G|-----------------------3---------------------3----2-----------------------|
C|-3-1-0-1-0-1-3-1-0-1-0-----3-1-0-1-0-1-3-1-0----0-------------------------|

Lead + Rhythm x7
D|--------------------------------------------------------------------------|
A|--------------------------------------------------------------------------|
F|--------------------------------------------------------------------------|
C|-0--0----000-000----------------------------------------------------------|
G|-0--0----000-000----------------------------------------------------------|
C|-0--0----000-000----------------------------------------------------------|
Suggest correction
Give kudos to tab author, rate the tab!
1 2 3 4 5
comments
print report bad tab
guest
You may want to rate the tab now too:
select rating
Wanna post a correction for this tab? Suggest correction