Oops, an error
Loading. Please wait.

Incoming Wounded - Star Wars Tab

1,055 views 1 this week
no commentswrite comment
1 2 3 4 5
please rate
add to favorites
launch autoscroll
font size
0
reset
how to read this tab
guitar tuner
Autoscroll
slow
fast
+/-
esc
set tempo
stop
Help us to improve Ultimate-Guitar.com Take our survey!
×
Author
Star Wars By Incoming Wounded
Difficulty Out Of 10: 7/10
The Song Is Made Of All The Main Star Wars Themes.

h = hammer on
p = pull off
/ = slide

Distortion In Throughout
Intro, Main Riff 1, Main Riff 2 And Intro 2 Amp Settings: Gain: 10 Bass: 10 Countour: 
Treble: 7 FX: 0 Reverb: 0
Bridge Amp Settings: Gain: 10 Bass: 10 Countour: 1.5 Treble: 7 FX: 2.5 Reverb: 5
Imperial MarchAmp Settings: Gain: 10 Bass: 10 Countour: 5 Treble: 10 FX: 0 Reverb: 0

Intro

E|--18---18-18-18----18-18-18----------11-13-11----------11-13-11----------11-13-11-------------|
B|----------------------------------11----------11----11----------11----11----------11----------|
G|-----------------------------10-----------------10----------------10-----------------10-10-10-|
D|----------------------------------------------------------------------------------------------|
A|----------------------------------------------------------------------------------------------|
E|----------------------------------------------------------------------------------------------|

Main Riff Part 1

E|-----------------------18------------------18---------------------|
B|-11------18----16-15---------18----16-15-------18---16-15-16------|
G|--------------------15------------------15-------------------17---|
D|------------------------------------------------------------------|
A|------------------------------------------------------------------|
E|------------------------------------------------------------------|

E|----------------------18------------------18----------------------|
B|--------18---16-15---------18----16-15----------18----16-15-16----|
G|--15---------------15------------------15----------------------17-|
D|------------------------------------------------------------------|
A|------------------------------------------------------------------|
E|------------------------------------------------------------------|

Main Riff Part 2

E|-------------------------------------------------------------------------13-----|
B|-------------16-15-13-11-11-13h15--13------------------------16-15-13-11-----13-|
G|--12----15----------------------------12-14---10-10-12----15--------------------|
D|--------------------------------------------------------------------------------|
A|--------------------------------------------------------------------------------|
E|--------------------------------------------------------------------------------|

E|-------------------------------------------------------------------------------13--|
B|-----------------16-15-13-11-11-13h15--15---------------16-16-15-15-13-13-11-11----|
G|10-10-12----15----------------------------12-14---10-10----------------------------|
D|-----------------------------------------------------------------------------------|
A|-----------------------------------------------------------------------------------|
E|-----------------------------------------------------------------------------------|

Intro 2

E|---------------------------------11----|
B|------------------------------------13-|
G|--10---10-10-10---10-10-10---10--------|
D|---------------------------------------|
A|---------------------------------------|
E|---------------------------------------|

Main Riff Part 1 Again

E|-----------------------18------------------18--------------------|
B|-11------18----16-15---------18----16-15-------18---16-15-16-----|
G|--------------------15------------------15-------------------17--|
D|-----------------------------------------------------------------|
A|-----------------------------------------------------------------|
E|-----------------------------------------------------------------|

E|----18------------------18----------------------------------------|
B|--------18---16-15---------18----16-15----------18----16-15-16----|
G|--15---------------15------------------15----------------------17-|
D|------------------------------------------------------------------|
A|------------------------------------------------------------------|
E|------------------------------------------------------------------|

Add This Bit On To The End Of Main Riff Part 1 Again

E|--------------------|
B|--------------------|
G|-17-----17-17-17-15-|
D|--------------------|
A|--------------------|
E|--------------------|

Bridge ( With Drums In The Backround )

E|---------------------------------------------|
B|---------------------------------------------|
G|--12-12---9--12-12---9---15--14h15-14--12--9-| x2
D|---------------------------------------------|
A|---------------------------------------------|
E|---------------------------------------------|

Imperial March Intro

E|------------------------------------------|
B|------------------------------------------|
G|------------------------------------------| X4
D|-6----6----6--6--6--6---6--6--66666-------|
A|-6----6----6--6--6--6---6--6--66666-2-2-2-|
E|-4----4----4--4--4--4---4--4--44444-0-0-0-|

Main Riff

E|-----4-4-4---7-4---7-4-4/11-11-12---------7-4----|
B|-----------5-----5----------------12----5--------|
G|-------------------------------------12----------| X2
D|-------------------------------------------------|
A|-------------------------------------------------|
E|-------------------------------------------------|

E|--4-4-4-3-2-1p0-1----------------------------------|
B|---------------------3-2-----------------------4---|
G|-------------------2-----5-4-3-4---0---4-1---4-----|
D|---------------------------------2---2-----2-------|
A|---------------------------------------------------|
E|---------------------------------------------------|

E|--4-4-4-3-2-1p0-1----------------------------------|
B|---------------------3-2---------------------------|
G|-------------------2-----5-4-3-4---0---4-1---4-1---|
D|---------------------------------2---2-----2-------|
A|---------------------------------------------------|
E|---------------------------------------------------|

Imperial March Intro Again

E|-------------------|
B|-------------------|
G|-------------------| x4
D|-6--6--66666-------|
A|-6--6--66666-2-2-2-|
E|-4--4--44444-0-0-0-|

E|--------------------------------------|
B|--------------------------------------|
G|--------------------------------------|
D|-6--6--66666-----------6--------6-6-6-|
A|-6--6--66666-2-2-2-----6--------6-6-6-|
E|-4--4--44444-0-0-0-----4--------4-4-4-|
Suggest correction
Give kudos to tab author, rate the tab!
1 2 3 4 5
comments
print report bad tab
guest
You may want to rate the tab now too:
select rating
Please do not post tabs as comments. Select "correction" instead!