Oops, an error
Loading. Please wait.

Incredible Me - Moments From Melodies Tab

578 views 1 this week
no commentswrite comment
1 2 3 4 5
please rate
add to favorites
launch autoscroll
font size
0
reset
how to read this tab
guitar tuner
Autoscroll
slow
fast
+/-
esc
set tempo
stop
Help us to improve Ultimate-Guitar.com Take our survey!
×
Author
-------------------------------------------------------------------------------
                             Moments From Melodies – Incredible' Me
-------------------------------------------------------------------------------

Here is one of Incredible' Me's first songs! The full-length album comes out early 2013 :)
http://www.facebook.com/IncredibleMeBand

Tuning: Drop C (CGCFAD)

Lexie’s Part
Guitar 1


Intro (x8)

D|--------8-----0-----0----------------------------------------------------|
A|----6-----6-----6-----6---6h8p6---6--------6-----6-----------5-----5-----|
F|--7---7-----7-----7-----7-------7------7-----7-----7----6------6-----6---|
C|-------------------------------------8---8-----8------7---7------7-------|
G|-------------------------------------------------------------------------|
C|-------------------------------------------------------------------------|
  PM………………………………………………………………………………………………………………………………………………………………………………………


D|--------8-----0-----0----------------------------------------------------|
A|----6-----6-----6-----6---6h8p6---6--------6-----6------------10p8---8---|
F|--7---7-----7-----7-----7-------7------7-----7-----7-----9---------------|
C|-------------------------------------8---8-----8-----/10---10-----10-----|
G|-------------------------------------------------------------------------|
C|-------------------------------------------------------------------------|
 PM……………………………………………………………………………………………………………………………………………………………………………………………



Chorus (X1 - Listen to the song for strumming pattern and stops)
“Every impression has been made…”
                                     “oh whoa…”
D|--0----0---0----0--10---0----0------8--8--8----8--8------8--8----8-----8--8-----|
A|--10---8---8h10-10-10---10---9------10-10-10---10-10-----10-10---10----10-10----|
F|--10---10--10---10-10---10---10-----10-10-10---10-10-----10-10---10----10-10----|
C|--0----0---0----0--0----x----x------8--8--8----8--8------8--8----8-----8--8-----|
G|--0----0---0----0--0----10---10-----8--8--8----8--8------8--8----8-----8--8-----|
C|--0----0---0----0--0----10---10-----8--8--8----8--8------8--8----8-----8—-8-----|

 (x16) (x13)             (x16)(x16)    


D|-x-x-8--8--8----8--8----8--8---8----8--8-------------------------------------------|
A|-x-x-8--8--8----8--8----8--8---8----8--8----10--10--10----10--10---10—-10----10—---|
F|-x-x-10-10-10---10-10---10-10--10---10-10---10--10--10----10--10---10--10----10----|
C|-x-x-8--8--8----8--8----8--8---8----8--8----x---x---x-----x---x----x---x-----x-----|
G|-x-x-8--8--8----8--8----8--8---8----8--8----10--10--10----10--10---10--10----10--—-|
C|-x-x-8--8--8----8--8----8--8---8----8--8----10--10--10----10--10---10--10----10----|

D|---------x-x-----------------------------------------------------------------------|
A|-10--10--x-x--8---8---8-----8---8------8---8-----8------8---8----------------------|
F|-10--10--x-x--10--10--10----10--10-----10--10----10-----10--10---------------------|
C|-x---x---x-x--x---x---x-----x---x------x---x-----x------x---x----------------------|
G|-10--10--x-x--10--10--10----10--10-----10--10----10-----10--10---------------------|
C|-10--10--x-x--10--10--10----10--10-----10--10----10-----10--10---------------------|




Verse 1

“A tight chest from the fear within me…”

  PM…………………
D|-------------0-----8-----10------------------------------------------------|
A|--------6----------------------8------10-----------------------------------|
F|---7-------------------------------------------(X12)-----------------------|
C|---------------------------------------------------------------------------|
G|---------------------------------------------------------------------------|
C|---------------------------------------------------------------------------|



“To live inside of what’s expected…”

D|--/12-12-12-12-12-12-12-12-13-13-13-13-13-13-13-13---5h8p5----------------------8p5--|
A|-----------------------------------------------------------6p5--------------6p5------|
F|---------------------------------------------------------------7p5--5-5h7p5----------|
C|-------------------------------------------------------------------------------------|
G|-------------------------------------------------------------------------------------|
C|-------------------------------------------------------------------------------------|

e|--/12-12-12-12-12-12-12-12-13-13-13-13-13-13-13-13---5h8p5----------------------------|
B|-----------------------------------------------------------6p5------------------------|
G|---------------------------------------------------------------7p5--5-5h7-7-7-5h7-7-7-|
D|--------------------------------------------------------------------------------------|
A|--------------------------------------------------------------------------------------|
E|--------------------------------------------------------------------------------------|


Repeat Chorus



2nd Verse
“So when you look at me now…”

D|---------------------------------------------------------------------------|
A|---------------------------------------------------------------------------|
F|---------------------------------------------------------------------------|
C|---------------------------------------------------------------------------|
G|----------------------------------------------------5--5--0-7-8-7-0--------|
C|---0---0---0-0----8---8---8-8-8-8/---5---5---5--5--------------------------|

D|---------------------------------------------------------------------------|
A|---------------------------------------------------------------------------|
F|---------------------------------------------------------------------------|
C|---------------------------------------------------------------------------|
G|----------------------------------------------------5--5--5-55555----------|
C|---0---0---0-0----8---8---8-8-8-8/---5---5---5--5--------------------------|


D|---------------------------------------------------------------------------|
A|---------------------------------------------------------------------------|
F|---------------------------------------------------------------------------|
C|---------------------------------------------------------------------------|
G|----------------------------------------------------5--5--0-7-8-7-0--------|
C|---0---0---0-0----8---8---8-8-8-8/---5---5---5--5--------------------------|



D|---------------------------------------------------------------------------|
A|---------------------------------------------------------------------------|
F|---------------------------------------------------------------------------|
C|---------------------------------------------------------------------------|
G|----------------------------------------------------5--5--0-7-8-7-0--------|
C|---0---0---0-0----8---8---8-8-8-8/---5---5---5--5--------------------------|


Instrumental Bridge Into Chorus (Listen to song for timing)

D|--5-------8---------------------------12-------------1515151515151515/17171717171717\-|
A|-----6-------6-----8/10\8------8------------8-----------------------------------------|
F|--------7~------7----------10-----10-------------10-----------------------------------|
C|--------------------------------------------------------------------------------------|
G|--------------------------------------------------------------------------------------|
C|--------------------------------------------------------------------------------------|


Repeat chorus again, this time all down strums (refer to song for timing)


End

D|--0-~--x-x---0---0---0-~--------------------------------------------|
A|--10~--x-x---8---8---8-~----10~---x-x---10--10--10~-----------------|
F|--10~--x-x---10--10--10~----10~---x-x---8---8---8-~-----------------|
C|--0-~--x-x---0---0---0-~----x-~---x-x---x---x---x-~-----------------|
G|--0-~--x-x---0---0---0-~----10~---x-x---10--10--10~-----------------|
C|--0-~--x-x---0---0---0-~----10~---x-x---10--10--10------------------|


D|--8-~--x-x---8---8---8-~--------------------------------------------|
A|--10~--x-x---8---8---8-~----10~---x-x---10--10--10~-----------------|
F|--10~--x-x---10--10--10~----10~---x-x---8---8---8-~-----------------|
C|--8-~--x-x---8---8---8-~----x-~---x-x---x---x---x-~-----------------|
G|--8-~--x-x---8---8---8-~----10~---x-x---10--10--10~-----------------|
C|--8-~--x-x---8---8---8-~----10~---x-x---10--10--10------------------|


D|---0-~------------|
A|---0-~------------|
F|---0-~------------|
C|---0-~------------|
G|---0-~------------|
C|---0-~------------|
Suggest correction
What's this?
You can suggest a correction to this tab. Community and Mods will review your correction and vote to approve or reject it.
comments
We did not receive enough feedback on this tab! Please rate:
print report bad tab
1 2 3 4 5
guest
You may want to rate the tab now too:
select rating
Please do not post tabs as comments. Select "correction" instead!