Oops, an error
Loading. Please wait.

Indepependence Hall - Im Sorry Bass Tab

41 views 1 this week
no commentswrite comment
1 2 3 4 5
please rate
add to favorites
launch autoscroll
font size
0
reset
guitar tuner
Autoscroll
slow
fast
+/-
esc
set tempo
stop
Help us to improve Ultimate-Guitar.com Take our survey!
×
This is the bass part exactly how Lane Plays it on the album and live.  You should feel 
knowing that it is being tabbed by the Independence Hall Official Tabmaster.

Verse/Intro
G[------------------------------------7-----|
D[-------------------------------6---6------|
A[-2---22----4---44----6---66---------------|
E[------------------------------------------|

Chorus

G[-------------------------------------------------------------7----|
D[-------------------------------------------------6-6-6-6-6-6---6--|
A[-2-2-2-2-2-2-2-2-4-4-4-4-4-4-4-4-6-6-6-6-6-6-6-6------------------|
E[------------------------------------------------------------------|

Thats really it.  A pretty easy song to play.
Suggest correction
Give kudos to tab author, rate the tab!
1 2 3 4 5
comments
print report bad tab
guest
You may want to rate the tab now too:
select rating
Please do not post tabs as comments. Select "correction" instead!