Oops, an error
Loading. Please wait.

Index - Honey Bass Tab

34 views 1 this week
no commentswrite comment
1 2 3 4 5
3 more votes to show rating
add to favorites
launch autoscroll
font size
0
reset
guitar tuner
Autoscroll
slow
fast
+/-
esc
set tempo
stop
Help us to improve Ultimate-Guitar.com Take our survey!
×
Author
Difficulty
intermediate
Song #3 By Index

Time Signature: 4/4

Key:
               ----                = 1 beat
        |----------------|         = 1 bar
           I / M / T / F           = index / middle / third / fourth (which finger to play it with)

[VERSE]

  I   I   T I   I    I   T I     I    M   T   I T    T   T T
G|----------------|----------------|----------------|----------------|
D|--------119-----|------7-5-----4-|--5---7---5-----|----------------|  X4
A|9---9---------5-|--5-------------|------------7---|7---7-7---------|
E|----------------|----------------|----------------|----------------|

  I   I     T   T    T   T T        I   I   T T   T    T   T T
G|----------------|----------------|----------------|----------------|
D|----------7-----|----------------|--------7-7-----|----------------|
A|5---5---------7-|--7---7-7-------|5---5---------7-|--7---7-7-------|
E|----------------|----------------|----------------|----------------|

  I   I     T   T    T   T T        I   I   I I        I   I I
G|----------------|----------------|----------------|----------------|
D|----------7-----|----------------|----------------|----------------|
A|5---5---------7-|--7---7-7-------|5---5---5-5---5-|--5---5-5-------|
E|----------------|----------------|----------------|----------------|

[CHORUS]

  I   I   T I   I    I   I   I I    I   I   T I   I    I   I   I I
G|----------------|----------------|----------------|----------------|
D|----------------|----------------|--------7-5-----|----------------|
A|3---3---5-3-----|----------------|3---3-----------|----------------|
E|--------------3-|--3---3---3-3---|--------------3-|--3---3---3-3---|

  I   I   T I   I    I   I   I I    I   I   I I   I    I   I   I I
G|----------------|----------------|----------------|----------------|
D|----------------|----------------|----------------|----------------|
A|3---3---5-3-----|----------------|----------------|----------------|
E|--------------3-|--3---3---3-3---|3---3---3-3---3-|--3---3---3-3---|

[VERSE] (same as first verse)

  I   I   T I   I    I   T I     I    M   T   I T    T   T T
G|----------------|----------------|----------------|----------------|
D|--------119-----|------7-5-----4-|--5---7---5-----|----------------|  X4
A|9---9---------5-|--5-------------|------------7---|7---7-7---------|
E|----------------|----------------|----------------|----------------|

  I   I     T   T    T   T T        I   I   T T   T    T   T T
G|----------------|----------------|----------------|----------------|
D|----------7-----|----------------|--------7-7-----|----------------|
A|5---5---------7-|--7---7-7-------|5---5---------7-|--7---7-7-------|
E|----------------|----------------|----------------|----------------|

  I   I     T   T    T   T T        I   I   I I        I   I I
G|----------------|----------------|----------------|----------------|
D|----------7-----|----------------|----------------|----------------|
A|5---5---------7-|--7---7-7-------|5---5---5-5---5-|--5---5-5-------|
E|----------------|----------------|----------------|----------------|

[CHORUS]

  I   I   T I   I    I   I   I I    I   I   T I   I    I   I   I I
G|----------------|----------------|--------7-5-----|----------------|
D|----------------|----------------|----------------|----------------|
A|3---3---5-3-----|----------------|3---3-----------|----------------|
E|--------------3-|--3---3---3-3---|--------------3-|--3---3---3-3---|

  I   I   T I   I    I   I   I I    I   I   I I   I    I   I   I I
G|----------------|----------------|----------------|----------------|
D|----------------|----------------|----------------|----------------|
A|3---3---5-3-----|----------------|----------------|----------------|
E|--------------3-|--3---3---3-3---|3---3---3-3---3-|--3---3---3-3---|

  I I I I I I I I  I I I I
G|----------------|----------------|
D|----------------|----------------|
A|----------------|----------------|
E|2-2-2-2-2-2-2-2-|2-2-2-2---------|

Written & Tabbed by Liam Coggan
Suggest correction
Give kudos to tab author, rate the tab!
1 2 3 4 5
comments
print report bad tab
guest
You may want to rate the tab now too:
select rating
Wanna post a correction for this tab? Suggest correction