Oops, an error
Loading. Please wait.

Instant Messenger - Strong bass

78 views 3 this week
no commentswrite comment
1 2 3 4 5
3 more votes to show rating
add to favorites
×
Save as Personal and add changes to this tab that will be seen only by you. Learn more ›
×
You can save this tab as Personal to edit and correct it or add notes. All changes will be seen only by you. Learn more »
launch autoscroll
font size
0
reset
guitar tuner
edit
Autoscroll
slow
fast
+/-
esc
set tempo
stop
Strong” by Instant Messenger bass tab for the very sexy EMILY HAWKINS OW OW!
(Hey, this one is a little easier (I think) than “Through” and it’s more upbeat, 
so I suggest learning this one first, as it’s easier and more likely to be needed.)
DROP! D! TUNING!

Intro
|---------------------------------------------------|
|---------------------------------------------------| Play 4x (Last times rhythm a little 
|----------------------------3--3-3-----------------|                     diff at the end.)
|---0----0-3---0---0-3-0------------5----0--3-------|

Verse 1

|---------------------------------------------------------------|
|---------------------------------------------------------------| Play 4x
|---------------------------------------------------------------|
|--0-0----0--00----0-3-3----3-33--3-5-5----5--55---5-0-0--0-00--|

Pre-Chorus 
|----------------------------------------------------------------------------------|
|----------------------------------------------------------------------------------|
|----------------------------------------------------------------------------------|
|--0~------3-3-----5-5----0-----0--3----0-0---3-3----5-5----0-0-0-0-0-0--/12\------|

Chorus
|---------------------------------------------------| Play 4x
|---------------------------------------------------| Same as above, rhythm a little diff.
|----------------------------3--3-3-----------------|                            
|---0----0-3---0---0-3-0------------5----0--3-------|

Verse 2
|---------------------------------------------------------------------------|
|---------------------------------------------------------------------------| 4 times
|---------------------------------------------------------------------------|
|--0-0----0--00----0-3-3----3-33--3-5-5----5--55---5-0-0--0-00--|


Pre-Chorus 
|------------------------------------------------------------------------------------|
|------------------------------------------------------------------------------------|
|------------------------------------------------------------------------------------|
|--0~------3-3-----5-5----0---0----3----0-0---3-3----5-5----0-0-0-0-0-0--/12\--------|

Chorus
|---------------------------------------------------|
|---------------------------------------------------|  4x, little diff. last time
|----------------------------3--3-3-----------------|                            
|---0----0-3---0---0-3-0------------5----0--3-------|


Pre-Breakdown (Nothing, you are silent)

Breakdown 1
|--------------------------------------------------------------------|
|--------------------------------------------------------------------|  Play 2x 
|--------------------------------------------------------------------|
|---0--0---0---0---0--3-3---3---3---3--5-5---5--5--5-0--0--0---0--0--| 

Breakdown 2
|-------------------------------------------------------------------------------------|
|-------------------------------------------------------------------------------------|
|-------------------------------------------------------------------------------------|
|--0-0-0--------3-3-3-------5-5-5------0-0-0----0-0-0------3-3-3------5-5-5----0-0-0~-|

Bridge (silent until the last time through the bridge)
|----------------------------------------------------------------------------------------|
|----------------------------------------------------------------------------------------|
|---5-5-5-5-5-5-5-5---8-8-8-8-8-8-8-8----------------------------------------------------|
|----------------------------------------------10-10-10-10-10-10-10-10---5-5-5-5-7-7-7-7-|

Chorus
|----------------------------------------------------|
|----------------------------------------------------| 
|----------------------------3--3-3------------------| last time hit a 0 on the Low D string
|---0----0-3---0---0-3-0------------5----0--3--------|
Suggest correction
Creating personal tab
Creating personal tab
You can edit any tab online and save it as your Personal.

You can edit, replace or remove any tab part or add personal notes – all changes will be seen only by you.

Personal tabs can be accessed anytime from any device, even offline.
Learn more »
Give kudos to tab author, rate the tab!
1 2 3 4 5
comments
print report bad tab
guest
You may want to rate the tab now too:
select rating
Wanna post a correction for this tab? Suggest correction