Oops, an error
Loading. Please wait.

Ive Seen - By Southern Plains Band tab

25 views 3 this week
no commentswrite comment
1 2 3 4 5
3 more votes to show rating
add to favorites
×
Save as Personal and add changes to this tab that will be seen only by you. Learn more ›
×
You can save this tab as Personal to edit and correct it or add notes. All changes will be seen only by you. Learn more »
launch autoscroll
font size
0
reset
how to read this tab
guitar tuner
edit
Autoscroll
slow
fast
+/-
esc
set tempo
stop
I’VE SEEN – Southern Plains Band


Written by: Ric Favors and Linda Panners
Tabbed by: Ric Favors
E-mail:info@southernplainsband.com

Tuning: Standard

Intro (Played soft and moderately slow)

e|------------------------------------------------------9--------------------
B|----2------7------9------7------2------2------7----9--9--9-----2-----------
G|----1------6------8------6------1------1------6----8--8--8-----1-----------
D|----2------7------9------7------2------2------7----9--9--9-----2-----------
A|---------------------------------------------------------------------------
E|---------------------------------------------------------------------------

Verse 1
e|---------------------------------------------------------------------------
B|----2---2---2------7---7---7----9---9---9------7---------------------------
G|----1---1---1------6---6---6----8---8---8------6---------------------------
D|----2---2---2------7---7---6----9---9---9------7---------------------------
A|---------------------------------------------------------------------------
E|---------------------------------------------------------------------------
       I’ve seen the moon when it shone like the sun    

e|---------------------------------------------------------------------------
B|----2---2---2---7---7---7-------9---9---9---7------------------------------
G|----1---1---1---6---6---6-------8---8---8---6------------------------------
D|----2---2---2---7---7---6-------9---9---9---7------------------------------
A|---------------------------------------------------------------------------
E|---------------------------------------------------------------------------
     I’ve seen a woman cry knowing he was the one 


e|---2---2----2--------3--------------------2--------------------------------
B|---3---3----3--------3-------1-----1------3--------------------------------
G|---2---2----2--------2--------------------2--------------------------------
D|-----------------------------2-----2---------------------------------------
A|-----------------------------3-----3---------------------------------------
E|---------------------------------------------------------------------------
     I’ve seen the calm ripped apart by the storm

e|---------------------------------------------------------------------------
B|----2---2---2------7---7---7----9---9---9------2---------------------------
G|----1---1---1------6---6---6----8---8---8------1---------------------------
D|----2---2---2------7---7---6----9---9---9------2---------------------------
A|---------------------------------------------------------------------------
E|---------------------------------------------------------------------------
      I’ve seen      hate turned to love  trans form


Verse 2
e|---------------------------------------------------------------------------
B|----2---2---2------7---7---7----9---9---9------7---------------------------
G|----1---1---1------6---6---6----8---8---8------6---------------------------
D|----2---2---2------7---7---6----9---9---9------7---------------------------
A|---------------------------------------------------------------------------
E|---------------------------------------------------------------------------
   I’ve seen the   strong wither and waste    away

e|---------------------------------------------------------------------------
B|----2---2---2------7---7---7----9---9---9------7---------------------------
G|----1---1---1------6---6---6----8---8---8------6---------------------------
D|----2---2---2------7---7---6----9---9---9------7---------------------------
A|---------------------------------------------------------------------------
E|---------------------------------------------------------------------------
     I’ve seen    men die under  orders to      obey 

e|---2---2----2--------3---------------------2-------------------------------
B|---3---3----3--------3-------1-----1-------3-------------------------------
G|---2---2----2--------2---------------------2-------------------------------
D|-----------------------------2-----2---------------------------------------
A|-----------------------------3-----3---------------------------------------
E|---------------------------------------------------------------------------
   I’ve seen  those with     everything not satisfied

e|---------------------------------------------------------------------------
B|----2---2---2------7---7---7----9---9---9------2---------------------------
G|----1---1---1------6---6---6----8---8---8------1---------------------------
D|----2---2---2------7---7---6----9---9---9------2---------------------------
A|---------------------------------------------------------------------------
E|---------------------------------------------------------------------------
  And I’ve seen tears fall from eyes filled with pride


CHORUS
e|---------------------3-------3------2----2---------------------------------
B|----2---2-----2---------------------3----3-------2-------------------------
G|----2---2-----2---------------------2----2-------2-------------------------
D|----2---2-----2----------------------------------2-------------------------
A|---------------------2-------2---------------------------------------------
E|---------------------3-------3---------------------------------------------
   But darl’in darl’in darl’in I have never seen a day

e|---------------------3-------3------2----2---------------------------------
B|----2---2-----2---------------------3----3-------2-------------------------
G|----2---2-----2---------------------2----2-------2-------------------------
D|----2---2-----2----------------------------------2-------------------------
A|---------------------2-------2---------------------------------------------
E|---------------------3-------3---------------------------------------------
   When I couldn’t     face you with open arms and say

e|---------------------3-------3------2----2---------------------------------
B|----2---2-----2---------------------3----3-------2-------------------------
G|----2---2-----2---------------------2----2-------2-------------------------
D|----2---2-----2----------------------------------2-------------------------
A|---------------------2-------2---------------------------------------------
E|---------------------3-------3---------------------------------------------
  I love you,love you,love you with   all my      heart

e|---------------3-----3---3------3--------2--------------------------------
B|----2---2--------------------------------3-------------------2------------
G|----2---2--------------------------------2-------------------1------------
D|----2---2----------------------------------------------------2------------
A|---------------2-----2---2------2-----------------------------------------
E|---------------3-----3---3------3-----------------------------------------
    Let the    world keep turning as long as we (2 beat pause) never part

Solo (Played freely)
e|------------------------------------------------------9--------------------
B|----2------7------9------7------2------2------7----9--9--9-----2-----------
G|----1------6------8------6------1------1------6----8--8--8-----1-----------
D|----2------7------9------7------2------2------7----9--9--9-----2-----------
A|---------------------------------------------------------------------------
E|---------------------------------------------------------------------------

Verse 3
e|---------------------------------------------------------------------------
B|----2---2---2------7---7---7----9---9---9------7---------------------------
G|----1---1---1------6---6---6----8---8---8------6---------------------------
D|----2---2---2------7---7---6----9---9---9------7---------------------------
A|---------------------------------------------------------------------------
E|---------------------------------------------------------------------------
   I’ve seen a   man of truth tell nothing but   lies

e|---------------------------------------------------------------------------
B|----2---2---2------7---7---7----9---9---9------7---------------------------
G|----1---1---1------6---6---6----8---8---8------6---------------------------
D|----2---2---2------7---7---6----9---9---9------7---------------------------
A|---------------------------------------------------------------------------
E|---------------------------------------------------------------------------
   I’ve seen how   dark it gets  before the   sunrise

e|---2---2----2--------3---------------------2-------------------------------
B|---3---3----3--------3-------1-----1-------3-------------------------------
G|---2---2----2--------2---------------------2-------------------------------
D|-----------------------------2-----2---------------------------------------
A|-----------------------------3-----3---------------------------------------
E|---------------------------------------------------------------------------
    I’ve seen people walk past love filled with fear

e|---------------------------------------------------------------------------
B|----2---2---2------7---7---7----9---9---9------2---------------------------
G|----1---1---1------6---6---6----8---8---8------1---------------------------
D|----2---2---2------7---7---6----9---9---9------2---------------------------
A|---------------------------------------------------------------------------
E|---------------------------------------------------------------------------
   And I’ve seen a Saint talk so loud no one would hear


Chrous
e|---------------------3-------3------2----2---------------------------------
B|----2---2-----2---------------------3----3-------2-------------------------
G|----2---2-----2---------------------2----2-------2-------------------------
D|----2---2-----2----------------------------------2-------------------------
A|---------------------2-------2---------------------------------------------
E|---------------------3-------3---------------------------------------------
   But darl’in darl’in darl’in I have never seen a day

e|---------------------3-------3------2----2---------------------------------
B|----2---2-----2---------------------3----3-------2-------------------------
G|----2---2-----2---------------------2----2-------2-------------------------
D|----2---2-----2----------------------------------2-------------------------
A|---------------------2-------2---------------------------------------------
E|---------------------3-------3---------------------------------------------
   When I couldn’t     face you with open arms and say

e|---------------------3-------3------2----2---------------------------------
B|----2---2-----2---------------------3----3-------2-------------------------
G|----2---2-----2---------------------2----2-------2-------------------------
D|----2---2-----2----------------------------------2-------------------------
A|---------------------2-------2---------------------------------------------
E|---------------------3-------3---------------------------------------------
  I love you,love you,love you with   all my      heart

e|---------------3-----3---3------3--------2--------------------------------
B|----2---2--------------------------------3-------------------2------------
G|----2---2--------------------------------2-------------------1------------
D|----2---2----------------------------------------------------2------------
A|---------------2-----2---2------2-----------------------------------------
E|---------------3-----3---3------3-----------------------------------------
    Let the    world keep turning as long as we (2 beat pause) never part

Solo (Played freely)
e|------------------------------------------------------9--------------------
B|----2------7------9------7------2------2------7----9--9--9-----2-----------
G|----1------6------8------6------1------1------6----8--8--8-----1-----------
D|----2------7------9------7------2------2------7----9--9--9-----2-----------
A|---------------------------------------------------------------------------
E|---------------------------------------------------------------------------

Verse 4
e|---------------------------------------------------------------------------
B|----2---2---2------7---7---7----9---9---9------7---------------------------
G|----1---1---1------6---6---6----8---8---8------6---------------------------
D|----2---2---2------7---7---6----9---9---9------7---------------------------
A|---------------------------------------------------------------------------
E|---------------------------------------------------------------------------
    I’ve seen   how much you      make me      whole

e|---------------------------------------------------------------------------
B|----2---2---2------7---7---7----9---9---9------7---------------------------
G|----1---1---1------6---6---6----8---8---8------6---------------------------
D|----2---2---2------7---7---6----9---9---9------7---------------------------
A|---------------------------------------------------------------------------
E|---------------------------------------------------------------------------
    I’ve seen   how the love   you give fills   my soul
e|---2---2----2--------3---------------------2-------------------------------
B|---3---3----3--------3-------1-----1-------3-------------------------------
G|---2---2----2--------2---------------------2-------------------------------
D|-----------------------------2-----2---------------------------------------
A|-----------------------------3-----3---------------------------------------
E|---------------------------------------------------------------------------
    I’ve seen the  change  you made in      me
e|---------------------------------------------------------------------------
B|----2---2---2------7---7---7----9---9---9------2---------------------------
G|----1---1---1------6---6---6----8---8---8------1---------------------------
D|----2---2---2------7---7---6----9---9---9------2---------------------------
A|---------------------------------------------------------------------------
E|---------------------------------------------------------------------------
    I’ve seen how   lov’in you has set me      free

e|------------------------------------------------------9--------4-----------
B|----2------7------9------7------2------2------7----9--9--9-----2-----------
G|----1------6------8------6------1------1------6----8--8--8-----2-----------
D|----2------7------9------7------2------2------7----9--9--9-----2-----------
A|---------------------------------------------------------------------------
E|---------------------------------------------------------------------------
 end

************************************

| /   slide up
| \   slide down
| h   hammer-on
| p   pull-off
| ~   vibrato
| +   harmonic
| x   Mute note
| b   Bend
| pb  Pre-bend
| br  Bend release
| pbr Pre-bend release
| brb Bend release bend

************************************


            
            
Suggest correction
Creating personal tab
Creating personal tab
You can edit any tab online and save it as your Personal.

You can edit, replace or remove any tab part or add personal notes – all changes will be seen only by you.

Personal tabs can be accessed anytime from any device, even offline.
Learn more »
Give kudos to tab author, rate the tab!
1 2 3 4 5
comments
print report bad tab
guest
You may want to rate the tab now too:
select rating
Wanna post a correction for this tab? Suggest correction