Oops, an error
Loading. Please wait.

Jack - Jack Tab

11 views 1 this week
no commentswrite comment
1 2 3 4 5
please rate
add to favorites
launch autoscroll
font size
0
reset
how to read this tab
guitar tuner
Autoscroll
slow
fast
+/-
esc
set tempo
stop
Help us to improve Ultimate-Guitar.com Take our survey!
×
Author
Difficulty
novice
(/) Slide Up  (\) Slide Down  (h) Hammer On  (p) Pull Off  (b) Bend (r) Release (v) Vibrato


E|--14b15r14--12--12-----17--19b21r19-17p15h17---17-19b21--19b21-19--17--------------------------|
B|----------------------------------------------------------------------20-19-17-----------------|
G|-------------------------------------------------------------------------------19-17-16--------|
D|----------------------------------------------------------------------------------------19-17--|
A|-----------------------------------------------------------------------------------------------|
E|-----------------------------------------------------------------------------------------------|


E|---------------------------------------------------------------------------------------------|
B|---------------------------------------------------------------------------------------------|
G|---------------------------------------------16-17-19-21-----------16-17-19-21-21~-----------|
D|-------------------17--19--------------17-19-----------------17-19---------------------------|
A|--19-17-19------19--------19--------19--------------------19---------------------------------|
E|---------------------------------------------------------------------------------------------|



E|-----------------------------------------------------------------14b15r14---12--12-----------|
B|--19p17------19p17------19p17-----19p17------------------------------------------------------|
G|-------19p16------19p16------19p16------19p16--19b21~~~~-------------------------------------|
D|---------------------------------------------------------------------------------------------|
A|---------------------------------------------------------------------------------------------|
E|---------------------------------------------------------------------------------------------|
Suggest correction
Give kudos to tab author, rate the tab!
1 2 3 4 5
comments
print report bad tab
guest
You may want to rate the tab now too:
select rating
Please do not post tabs as comments. Select "correction" instead!