Oops, an error
Loading. Please wait.

Jack The Beagle - Beagle Dog Chords

13 views 1 this week
no commentswrite comment
1 2 3 4 5
3 more votes to show rating
add to favorites
launch autoscroll
font size
0
reset
transpose
0
reset
display chords
guitar tuner
Autoscroll
slow
fast
+/-
esc
set tempo
stop
Help us to improve Ultimate-Guitar.com Take our survey!
×
Author
Difficulty
novice
[Intro]

C / F / C / F
C / F / G


        C
Well you know
            F
I'm never bored
C                                    F
The world around us waits to be explored
G                F
On the river on in the air
G                    F
In the mountains I just don't care

       C
I go round and round and round
F
On the move until the sun goes down
       C
I go round and round and over and through
F
Up and under just to be with you
G                                       C
This hound, goes round and round and round

E                             F
Sometimes it's hard to be a little guy
G                    C
Misunderstood and I don't know why
E                        F
I need a new adventure every day
  G                                   (bass walks down)
Come on, let's go, wake up, it's time for fun
        F
Let's play

[Solo]
C / F / C / F


       C
Go round and round and round
F
On the move until the sun goes down
       C
I go round and round and over and through
F
Up and under just to be with you


       C
I go round and round and round
F
On the move until the sun goes down
       C
I go round and round and over and through
F
Up and under just to be with you
G                                       C
This hound, goes round and round and round


       C
Oh oh oh
                F
Oh oh oh oh oh oh
       C
Oh oh oh
                F
Oh oh oh oh oh oh
       C
Oh oh oh
                F
Oh oh oh oh oh oh


[INTRO LEAD PART]
e/--------------------------------/
B/--------------------------------/
G/--------------------------------/
D/--------------------------------/
A/--------------------------------/
E/3-3-----------------------------/

e/--------------------------------/--------------------------------/
B/--------------------------------/--------------------------------/
G/--------------------------------/--------------------------------/
D/------------2-------------------/3-2---2-------------------------/
A/------2-3-5---------------------/----5---5-2-3-------------------/
E/3-3-5--------1------------------/--------------------------------/


e/--------------------------------/--------------------------------/
B/--------------------------------/--------------------------------/
G/--------------------------------/--------------------------------/
D/------------2-------------------/--------------------------------/
A/------2-3-5---------------------/10------------------------------/
E/3-3-5--------1------------------/--------------------------------/

[Solo]
                                   b                                        b      b
e/--------------------------------/--------------------------------/--------------------------------/
B/--------------------------------/--------------------------------/--------------------------------/
G/--------------------------10-10-/10-8---8----------8-------------/--------------------------------/
D/--------------------------------/---------10-8-10-----10---------/-------------------------------8/
A/--------------------------------/--------------------------------/----6-8-8----6-8----6-----------/
E/--------------------------------/--------------------------------/8-6-------------------8---------/
           b                  b                        b
e/----------------------------8---/--------------------------------/
B/-----------------------------7--/16----16----16------------------/
G/---8----10--8----8--------------/--14----14----14----10---10-8---/
D/10---10-------10---10-8-10------/----16----16----16------------10/
A/--------------------------------/--------------------------------/
E/--------------------------------/--------------------------------/
Suggest correction
Give kudos to tab author, rate the tab!
1 2 3 4 5
comments
print report bad tab
guest
You may want to rate the tab now too:
select rating
Wanna post a correction for this tab? Suggest correction