Oops, an error
Loading. Please wait.

Jarle Bernhoft - So Many Faces bass

7,581 views 1 this week
1 commentread comment
1 2 3 4 5
2 more votes to show rating
add to favorites
×
Save as Personal and add changes to this tab that will be seen only by you. Learn more ›
×
You can save this tab as Personal to edit and correct it or add notes. All changes will be seen only by you. Learn more »
launch autoscroll
font size
0
reset
guitar tuner
edit
Autoscroll
slow
fast
+/-
esc
set tempo
stop
Jarle Bernhoft - So Many Faces - Bass tab


Intro:

Gb|-------------------------------------------|
Db|-------------------------------------------|
Ab|-14--12--12--------5-7---5---5---7---5-5---|
Eb|---14--14--14-15-7-----7---7---7---7-------|

"ah, ah"...
Gb|-------------------------------------------|
Db|-------------------------------------------|
Ab|---14--12--12--------5-7---5---5---7---5-5-|
Eb|-----14--14--14-15-7-----7---7---7---7-----|


Verse:

"ah, ah, this city there are so many faces..."
Gb|-------------------------------------------|
Db|-------------------------------------------|
Ab|-14--12--12--14--12-12-10---5---5---7---5-5|	(x2)
Eb|---14--14--14--14---------7---7---7---7----|

Gb|-------------------------------------------|
Db|-------------------------------------------|
Ab|b-14--12--12--14--12-12-10---5---5---7---5-5|
Eb|---14--14--14--14---------7---7---7---7----|


Bridge

"I'm on my own..."
Gb|-------------------------------------------|
Db|-------------------------------------------|
Ab|-7---------5---5---5-6-7-------------------|	(x3)
Eb|---4-5-6-7---7---7-------------------------|

Gb|-------------------------------------------|
Db|-------------------------------------------|
Ab|-----------5---5---5-6-7-------------------|	
Eb|---4-5-6-7---7---7-------------------------|

Gb|-------------------------------------------|
Db|-------------------------------------------|
Ab|-----------5---5---5-6-7-------------------|	
Eb|---4-5-6-7---7---7-------------------------|

Gb|-------------------------------------------|
Db|-------------------------------------------|
Ab|-------------------------------------------|	
Eb|---4-5-6-7-14-14-14-14-14-14-14-14---------|


Ref:	(Same as intro)

Gb|-------------------------------------------|
Db|-------------------------------------------|
Ab|-14--12--12--------5-7---5---5---7---5-5---|	(x2)
Eb|---14--14--14-15-7-----7---7---7---7-------|

Gb|-------------------------------------------|
Db|-------------------------------------------|
Ab|-14--12--12--------5-7---5---5---7---5-5---|
Eb|---14--14--14-15-7-----7---7---7---7-------|

            
            
Suggest correction
Creating personal tab
Creating personal tab
You can edit any tab online and save it as your Personal.

You can edit, replace or remove any tab part or add personal notes – all changes will be seen only by you.

Personal tabs can be accessed anytime from any device, even offline.
Learn more »
Give kudos to tab author, rate the tab!
1 2 3 4 5
comments
print report bad tab
1 comment total.
0 reply
MitchellMA 188 Jan 05, 2017 09:39 PM, edited on January 6 2017, 02:40 am

2 questions. Why did you put this under MISC UNSIGNED BANDS, and why not Standard tuning? jw

guest
You may want to rate the tab now too:
select rating
Wanna post a correction for this tab? Suggest correction